  0
SECTION
  2
HEADER
  9
$ACADVER
  1
AC1015
  9
$ACADMAINTVER
 70
     6
  9
$DWGCODEPAGE
  3
ANSI_932
  9
$INSBASE
 10
0.0
 20
0.0
 30
0.0
  9
$EXTMIN
 10
-4.517898
 20
-801.784135
 30
1.000000E+20
  9
$EXTMAX
 10
1488.179275
 20
2.688897
 30
-1.000000E+20
  9
$LIMMIN
 10
-4.517898
 20
-801.784135
  9
$LIMMAX
 10
1488.179275
 20
2.688897
  9
$ORTHOMODE
 70
     0
  9
$REGENMODE
 70
     1
  9
$FILLMODE
 70
     1
  9
$QTEXTMODE
 70
     0
  9
$MIRRTEXT
 70
     1
  9
$LTSCALE
 40
1.0
  9
$ATTMODE
 70
     1
  9
$TEXTSIZE
 40
0.2
  9
$TRACEWID
 40
0.05
  9
$TEXTSTYLE
  7
Standard
  9
$CLAYER
  8
0
  9
$CELTYPE
  6
Continuous
  9
$CECOLOR
 62
   256
  9
$CELTSCALE
 40
1.0
  9
$DISPSILH
 70
     0
  9
$DIMSCALE
 40
1.0
  9
$DIMASZ
 40
0.18
  9
$DIMEXO
 40
0.0625
  9
$DIMDLI
 40
0.38
  9
$DIMRND
 40
0.0
  9
$DIMDLE
 40
0.0
  9
$DIMEXE
 40
0.18
  9
$DIMTP
 40
0.0
  9
$DIMTM
 40
0.0
  9
$DIMTXT
 40
0.18
  9
$DIMCEN
 40
0.09
  9
$DIMTSZ
 40
0.0
  9
$DIMTOL
 70
     0
  9
$DIMLIM
 70
     0
  9
$DIMTIH
 70
     1
  9
$DIMTOH
 70
     1
  9
$DIMSE1
 70
     0
  9
$DIMSE2
 70
     0
  9
$DIMTAD
 70
     0
  9
$DIMZIN
 70
     0
  9
$DIMBLK
  1

  9
$DIMASO
 70
     1
  9
$DIMSHO
 70
     1
  9
$DIMPOST
  1

  9
$DIMAPOST
  1

  9
$DIMALT
 70
     0
  9
$DIMALTD
 70
     2
  9
$DIMALTF
 40
25.4
  9
$DIMLFAC
 40
1.0
  9
$DIMTOFL
 70
     0
  9
$DIMTVP
 40
0.0
  9
$DIMTIX
 70
     0
  9
$DIMSOXD
 70
     0
  9
$DIMSAH
 70
     0
  9
$DIMBLK1
  1

  9
$DIMBLK2
  1

  9
$DIMSTYLE
  2
Standard
  9
$DIMCLRD
 70
     0
  9
$DIMCLRE
 70
     0
  9
$DIMCLRT
 70
     0
  9
$DIMTFAC
 40
1.0
  9
$DIMGAP
 40
0.09
  9
$DIMJUST
 70
     0
  9
$DIMSD1
 70
     0
  9
$DIMSD2
 70
     0
  9
$DIMTOLJ
 70
     1
  9
$DIMTZIN
 70
     0
  9
$DIMALTZ
 70
     0
  9
$DIMALTTZ
 70
     0
  9
$DIMUPT
 70
     0
  9
$DIMDEC
 70
     4
  9
$DIMTDEC
 70
     4
  9
$DIMALTU
 70
     2
  9
$DIMALTTD
 70
     2
  9
$DIMTXSTY
  7
Standard
  9
$DIMAUNIT
 70
     0
  9
$DIMADEC
 70
     0
  9
$DIMALTRND
 40
0.0
  9
$DIMAZIN
 70
     0
  9
$DIMDSEP
 70
     0
  9
$DIMATFIT
 70
     3
  9
$DIMFRAC
 70
     0
  9
$DIMLDRBLK
  1

  9
$DIMLUNIT
 70
     2
  9
$DIMLWD
 70
     0
  9
$DIMLWE
 70
     0
  9
$DIMTMOVE
 70
     0
  9
$LUNITS
 70
     2
  9
$LUPREC
 70
     4
  9
$SKETCHINC
 40
0.1
  9
$FILLETRAD
 40
0.0
  9
$AUNITS
 70
     0
  9
$AUPREC
 70
     0
  9
$MENU
  1
acad
  9
$ELEVATION
 40
0.0
  9
$PELEVATION
 40
0.0
  9
$THICKNESS
 40
0.0
  9
$LIMCHECK
 70
     0
  9
$CHAMFERA
 40
0.0
  9
$CHAMFERB
 40
0.0
  9
$CHAMFERC
 40
0.0
  9
$CHAMFERD
 40
0.0
  9
$SKPOLY
 70
     0
  9
$TDCREATE
 40
0.000000000
  9
$TDUCREATE
 40
0.000000000
  9
$TDUPDATE
 40
0.000000000
  9
$TDUUPDATE
 40
0.000000000
  9
$TDINDWG
 40
0.0000000000
  9
$TDUSRTIMER
 40
0.0000000000
  9
$USRTIMER
 70
     1
  9
$ANGBASE
 50
0.0
  9
$ANGDIR
 70
     0
  9
$PDMODE
 70
     0
  9
$PDSIZE
 40
0.0
  9
$PLINEWID
 40
0.0
  9
$SPLFRAME
 70
     0
  9
$SPLINETYPE
 70
     6
  9
$SPLINESEGS
 70
     8
  9
$HANDSEED
  5
B6
  9
$SURFTAB1
 70
     6
  9
$SURFTAB2
 70
     6
  9
$SURFTYPE
 70
     6
  9
$SURFU
 70
     6
  9
$SURFV
 70
     6
  9
$UCSBASE
  2

  9
$UCSNAME
  2

  9
$UCSORG
 10
0.0
 20
0.0
 30
0.0
  9
$UCSXDIR
 10
1.0
 20
0.0
 30
0.0
  9
$UCSYDIR
 10
0.0
 20
1.0
 30
0.0
  9
$UCSORTHOREF
  2

  9
$UCSORTHOVIEW
 70
     0
  9
$UCSORGTOP
 10
0.0
 20
0.0
 30
0.0
  9
$UCSORGBOTTOM
 10
0.0
 20
0.0
 30
0.0
  9
$UCSORGLEFT
 10
0.0
 20
0.0
 30
0.0
  9
$UCSORGRIGHT
 10
0.0
 20
0.0
 30
0.0
  9
$UCSORGFRONT
 10
0.0
 20
0.0
 30
0.0
  9
$UCSORGBACK
 10
0.0
 20
0.0
 30
0.0
  9
$PUCSBASE
  2

  9
$PUCSNAME
  2

  9
$PUCSORG
 10
0.0
 20
0.0
 30
0.0
  9
$PUCSXDIR
 10
1.0
 20
0.0
 30
0.0
  9
$PUCSYDIR
 10
0.0
 20
1.0
 30
0.0
  9
$PUCSORTHOREF
  2

  9
$PUCSORTHOVIEW
 70
     0
  9
$PUCSORGTOP
 10
0.0
 20
0.0
 30
0.0
  9
$PUCSORGBOTTOM
 10
0.0
 20
0.0
 30
0.0
  9
$PUCSORGLEFT
 10
0.0
 20
0.0
 30
0.0
  9
$PUCSORGRIGHT
 10
0.0
 20
0.0
 30
0.0
  9
$PUCSORGFRONT
 10
0.0
 20
0.0
 30
0.0
  9
$PUCSORGBACK
 10
0.0
 20
0.0
 30
0.0
  9
$USERI1
 70
     0
  9
$USERI2
 70
     0
  9
$USERI3
 70
     0
  9
$USERI4
 70
     0
  9
$USERI5
 70
     0
  9
$USERR1
 40
0.0
  9
$USERR2
 40
0.0
  9
$USERR3
 40
0.0
  9
$USERR4
 40
0.0
  9
$USERR5
 40
0.0
  9
$WORLDVIEW
 70
     1
  9
$SHADEDGE
 70
     3
  9
$SHADEDIF
 70
    70
  9
$TILEMODE
 70
     1
  9
$MAXACTVP
 70
    16
  9
$PINSBASE
 10
0.0
 20
0.0
 30
0.0
  9
$PLIMCHECK
 70
     0
  9
$PEXTMIN
 10
1.000000E+20
 20
1.000000E+20
 30
1.000000E+20
  9
$PEXTMAX
 10
-1.000000E+20
 20
-1.000000E+20
 30
-1.000000E+20
  9
$PLIMMIN
 10
0.0
 20
0.0
  9
$PLIMMAX
 10
12.0
 20
9.0
  9
$UNITMODE
 70
     0
  9
$VISRETAIN
 70
     0
  9
$PLINEGEN
 70
     1
  9
$PSLTSCALE
 70
     0
  9
$TREEDEPTH
 70
  3020
  9
$CMLSTYLE
  2
Standard
  9
$CMLJUST
 70
     0
  9
$CMLSCALE
 40
1.0
  9
$PROXYGRAPHICS
 70
     0
  9
$MEASUREMENT
 70
     1
  9
$CELWEIGHT
370
     0
  9
$ENDCAPS
280
     0
  9
$JOINSTYLE
280
     0
  9
$LWDISPLAY
290
     0
  9
$INSUNITS
 70
     0
  9
$HYPERLINKBASE
  1

  9
$STYLESHEET
  1

  9
$XEDIT
290
     1
  9
$CEPSNTYPE
380
     0
  9
$PSTYLEMODE
290
     1
  9
$FINGERPRINTGUID
  2

  9
$VERSIONGUID
  2

  9
$EXTNAMES
290
     1
  9
$PSVPSCALE
 40
0.0
  0
ENDSEC
  0
SECTION
  2
CLASSES
  0
CLASS
  1
LWPOLYLINE
  2
AcDbPolyline
  3
AutoCAD 2000
 90
    32768
280
     0
281
     1
  0
CLASS
  1
IMAGE
  2
AcDbRasterImage
  3
ISM
 90
    32895
280
     0
281
     1
  0
CLASS
  1
OLE2FRAME
  2
AcDbOle2Frame
  3
AutoCAD 2000
 90
    32768
280
     0
281
     1
  0
CLASS
  1
HATCH
  2
AcDbHatch
  3
AutoCAD 2000
 90
        0
280
     0
281
     1
  0
CLASS
  1
DICTIONARYVAR
  2
AcDbDictionaryVar
  3
AutoCAD 2000
 90
    32768
280
     0
281
     0
  0
CLASS
  1
RASTERVARIABLES
  2
AcDbRasterVariables
  3
ISM
 90
    32768
280
     0
281
     0
  0
CLASS
  1
IMAGEDEF
  2
AcDbRasterImageDef
  3
ISM
 90
    32768
280
     0
281
     0
  0
CLASS
  1
IMAGEDEF_REACTOR
  2
AcDbRasterImageDefReactor
  3
ISM
 90
    32769
280
     0
281
     0
  0
CLASS
  1
IDBUFFER
  2
AcDbIdBuffer
  3
AutoCAD 2000
 90
    32768
280
     0
281
     0
  0
CLASS
  1
SPATIAL_FILTER
  2
AcDbSpatialFilter
  3
AutoCAD 2000
 90
    32768
280
     0
281
     0
  0
CLASS
  1
XRECORD
  2
AcDbXrecord
  3
AutoCAD 2000
 90
    32768
280
     0
281
     0
  0
CLASS
  1
SORTENTSTABLE
  2
AcDbSortentsTable
  3
AutoCAD 2000
 90
    32768
280
     0
281
     0
  0
CLASS
  1
LAYER_INDEX
  2
AcDbLayerIndex
  3
AutoCAD 2000
 90
    32768
280
     0
281
     0
  0
CLASS
  1
SPATIAL_INDEX
  2
AcDbSpatialIndex
  3
AutoCAD 2000
 90
    32768
280
     0
281
     0
  0
CLASS
  1
OBJECT_PTR
  2
CAseDLPNTableRecord
  3
"ASE-LPNTableRecord"
 90
    32769
280
     0
281
     0
  0
CLASS
  1
LAYOUT
  2
AcDbLayout
  3
AutoCAD 2000
 90
        0
280
     0
281
     0
  0
CLASS
  1
PLOTSETTINGS
  2
AcDbPlotSettings
  3
AutoCAD 2000
 90
    32768
280
     0
281
     0
  0
CLASS
  1
ACDBDICTIONARYWDFLT
  2
AcDbDictionaryWithDefault
  3
AutoCAD 2000
 90
        0
280
     0
281
     0
  0
CLASS
  1
ACDBPLACEHOLDER
  2
AcDbPlaceHolder
  3
AutoCAD 2000
 90
        0
280
     0
281
     0
  0
CLASS
  1
VBA_PROJECT
  2
AcDbVbaProject
  3
acadvba
 90
    32768
280
     0
281
     0
  0
CLASS
  1
WIPEOUT
  2
AcDbWipeout
  3
WipeOut|AutoCAD Express Tool|expresstools@autodesk.com
 90
    32895
280
     0
281
     1
  0
CLASS
  1
WIPEOUTVARIABLES
  2
AcDbWipeoutVariables
  3
WipeOut|AutoCAD Express Tool|expresstools@autodesk.com
 90
        0
280
     0
281
     0
  0
CLASS
  1
RTEXT
  2
RText
  3
RText|AutoCAD Express Tool|expresstools@autodesk.com
 90
    32768
280
     0
281
     1
  0
CLASS
  1
ARCALIGNEDTEXT
  2
AcDbArcAlignedText
  3
ATEXT|AutoCAD Express Tool|expresstools@autodesk.com
 90
    32768
280
     0
281
     1
  0
ENDSEC
  0
SECTION
  2
TABLES
  0
TABLE
  2
VPORT
  5
7
100
AcDbSymbolTable
 70
     1
  0
VPORT
  5
15
100
AcDbSymbolTableRecord
100
AcDbViewportTableRecord
  2
*ACTIVE
 70
     0
 10
0.0
 20
0.0
 11
1.0
 21
1.0
 12
6.591288
 22
4.579184
 13
0.0
 23
0.0
 14
1.0
 24
1.0
 15
0.0
 25
0.0
 16
0.0
 26
0.0
 36
1.0
 17
0.0
 27
0.0
 37
0.0
 40
9.158369
 41
0.688564
 42
50.0
 43
0.0
 44
0.0
 50
0.0
 51
0.0
 71
     0
 72
   100
 73
     1
 74
     1
 75
     0
 76
     0
 77
     0
 78
     0
281
     0
 65
     0
110
0.0
120
0.0
130
0.0
111
1.0
121
0.0
131
0.0
112
0.0
122
1.0
132
0.0
345
0
346
0
 79
     0
146
0.0
  0
ENDTAB
  0
TABLE
  2
LTYPE
  5
4
100
AcDbSymbolTable
 70
    14
  0
LTYPE
  5
11
100
AcDbSymbolTableRecord
100
AcDbLinetypeTableRecord
  2
ByBlock
 70
    64
  3

 72
    65
 73
     0
 40
0.0
  0
LTYPE
  5
12
100
AcDbSymbolTableRecord
100
AcDbLinetypeTableRecord
  2
ByLayer
 70
    64
  3

 72
    65
 73
     0
 40
0.0
  0
LTYPE
  5
13
100
AcDbSymbolTableRecord
100
AcDbLinetypeTableRecord
  2
Continuous
 70
    64
  3
Solid line
 72
    65
 73
     0
 40
0.0
  0
LTYPE
  5
2D
100
AcDbSymbolTableRecord
100
AcDbLinetypeTableRecord
  2
AI9-LType1
 70
    64
  3
Illustrator Dash Style No.1
 72
    65
 73
     4
 40
9.999944
 49
4.99999
 74
     0
 49
-0.999984
 74
     0
 49
2.999987
 74
     0
 49
-0.999984
 74
     0
  0
LTYPE
  5
3C
100
AcDbSymbolTableRecord
100
AcDbLinetypeTableRecord
  2
AI9-LType2
 70
    64
  3
Illustrator Dash Style No.2
 72
    65
 73
     4
 40
8.999961
 49
4.99999
 74
     0
 49
-0.999984
 74
     0
 49
2.000003
 74
     0
 49
-0.999984
 74
     0
  0
LTYPE
  5
A3
100
AcDbSymbolTableRecord
100
AcDbLinetypeTableRecord
  2
AI9-LType3
 70
    64
  3
Illustrator Dash Style No.3
 72
    65
 73
     4
 40
9.99998
 49
4.99999
 74
     0
 49
-2.000003
 74
     0
 49
0.999984
 74
     0
 49
-2.000003
 74
     0
  0
LTYPE
  5
A5
100
AcDbSymbolTableRecord
100
AcDbLinetypeTableRecord
  2
AI9-LType4
 70
    64
  3
Illustrator Dash Style No.4
 72
    65
 73
     4
 40
9.99998
 49
4.99999
 74
     0
 49
-2.000003
 74
     0
 49
0.999984
 74
     0
 49
-2.000003
 74
     0
  0
LTYPE
  5
A7
100
AcDbSymbolTableRecord
100
AcDbLinetypeTableRecord
  2
AI9-LType5
 70
    64
  3
Illustrator Dash Style No.5
 72
    65
 73
     4
 40
9.99998
 49
4.99999
 74
     0
 49
-2.000003
 74
     0
 49
0.999984
 74
     0
 49
-2.000003
 74
     0
  0
LTYPE
  5
A9
100
AcDbSymbolTableRecord
100
AcDbLinetypeTableRecord
  2
AI9-LType6
 70
    64
  3
Illustrator Dash Style No.6
 72
    65
 73
     4
 40
9.99998
 49
4.99999
 74
     0
 49
-2.000003
 74
     0
 49
0.999984
 74
     0
 49
-2.000003
 74
     0
  0
LTYPE
  5
AB
100
AcDbSymbolTableRecord
100
AcDbLinetypeTableRecord
  2
AI9-LType7
 70
    64
  3
Illustrator Dash Style No.7
 72
    65
 73
     4
 40
9.99998
 49
4.99999
 74
     0
 49
-2.000003
 74
     0
 49
0.999984
 74
     0
 49
-2.000003
 74
     0
  0
LTYPE
  5
AD
100
AcDbSymbolTableRecord
100
AcDbLinetypeTableRecord
  2
AI9-LType8
 70
    64
  3
Illustrator Dash Style No.8
 72
    65
 73
     4
 40
9.99998
 49
4.99999
 74
     0
 49
-2.000003
 74
     0
 49
0.999984
 74
     0
 49
-2.000003
 74
     0
  0
LTYPE
  5
AF
100
AcDbSymbolTableRecord
100
AcDbLinetypeTableRecord
  2
AI9-LType9
 70
    64
  3
Illustrator Dash Style No.9
 72
    65
 73
     4
 40
9.99998
 49
4.99999
 74
     0
 49
-2.000003
 74
     0
 49
0.999984
 74
     0
 49
-2.000003
 74
     0
  0
LTYPE
  5
B1
100
AcDbSymbolTableRecord
100
AcDbLinetypeTableRecord
  2
AI9-LType10
 70
    64
  3
Illustrator Dash Style No.10
 72
    65
 73
     4
 40
9.99998
 49
4.99999
 74
     0
 49
-2.000003
 74
     0
 49
0.999984
 74
     0
 49
-2.000003
 74
     0
  0
LTYPE
  5
B3
100
AcDbSymbolTableRecord
100
AcDbLinetypeTableRecord
  2
AI9-LType11
 70
    64
  3
Illustrator Dash Style No.11
 72
    65
 73
     4
 40
9.99998
 49
4.99999
 74
     0
 49
-2.000003
 74
     0
 49
0.999984
 74
     0
 49
-2.000003
 74
     0
  0
ENDTAB
  0
TABLE
  2
LAYER
  5
2
100
AcDbSymbolTable
 70
     2
  0
LAYER
  5
14
100
AcDbSymbolTableRecord
100
AcDbLayerTableRecord
  2
0
 70
     0
 62
     7
  6
Continuous
290
     1
370
    -3
390
1D
  0
LAYER
  5
28
100
AcDbSymbolTableRecord
100
AcDbLayerTableRecord
  2
ORGANIC
 70
     4
 62
     3
  6
Continuous
290
     1
370
    -3
390
1D
  0
ENDTAB
  0
TABLE
  2
STYLE
  5
3
100
AcDbSymbolTable
 70
     5
  0
STYLE
  5
17
100
AcDbSymbolTableRecord
100
AcDbTextStyleTableRecord
  2
Standard
 70
     0
 40
0.0
 41
1.0
 50
0.0
 71
     0
 42
0.0
  3
txt
  4

  0
STYLE
  5
24
100
AcDbSymbolTableRecord
100
AcDbTextStyleTableRecord
  2
STD
 70
     0
 40
0.0
 41
1.0
 50
0.0
 71
     0
 42
0.0
  3
txt
  4

  0
STYLE
  5
25
100
AcDbSymbolTableRecord
100
AcDbTextStyleTableRecord
  2
TATESTD
 70
     4
 40
0.0
 41
1.0
 50
0.0
 71
     0
 42
0.0
  3
txt
  4

  0
STYLE
  5
26
100
AcDbSymbolTableRecord
100
AcDbTextStyleTableRecord
  2
KANJISTD
 70
     0
 40
0.0
 41
1.0
 50
0.0
 71
     0
 42
0.0
  3
txt
  4
extfont
  0
STYLE
  5
27
100
AcDbSymbolTableRecord
100
AcDbTextStyleTableRecord
  2
KANJITATE
 70
     4
 40
0.0
 41
1.0
 50
0.0
 71
     0
 42
0.0
  3
txt
  4
extfont
  0
ENDTAB
  0
TABLE
  2
VIEW
  5
5
100
AcDbSymbolTable
 70
     0
  0
ENDTAB
  0
TABLE
  2
UCS
  5
6
100
AcDbSymbolTable
 70
     0
  0
ENDTAB
  0
TABLE
  2
APPID
  5
8
100
AcDbSymbolTable
 70
     1
  0
APPID
  5
16
100
AcDbSymbolTableRecord
100
AcDbRegAppTableRecord
  2
ACAD
 70
     0
  0
ENDTAB
  0
TABLE
  2
DIMSTYLE
  5
9
100
AcDbSymbolTable
 70
     1
100
AcDbDimStyleTable
 71
     0
  0
DIMSTYLE
105
18
100
AcDbSymbolTableRecord
100
AcDbDimStyleTableRecord
  2
Standard
 70
     0
  3

  4

 40
1.0
 41
0.18
 42
0.0625
 43
0.38
 44
0.18
 45
0.0
 46
0.0
 47
0.0
 48
0.0
 71
     0
 72
     0
 73
     1
 74
     1
 75
     0
 76
     0
 77
     0
 78
     0
 79
     0
140
0.18
141
0.09
142
0.0
143
25.4
144
1.0
145
0.0
146
1.0
147
0.09
148
0.0
170
     0
171
     2
172
     0
173
     0
174
     0
175
     0
176
     0
177
     0
178
     0
179
     0
271
     4
272
     4
273
     2
274
     2
275
     0
276
     0
277
     2
278
    46
279
     0
280
     0
281
     0
282
     0
283
     1
284
     0
285
     0
286
     0
288
     0
340
17
341
0
342
0
343
0
344
0
371
    -2
372
    -2
  0
ENDTAB
  0
TABLE
  2
BLOCK_RECORD
  5
1
100
AcDbSymbolTable
 70
    19
  0
BLOCK_RECORD
  5
A
100
AcDbSymbolTableRecord
100
AcDbBlockTableRecord
  2
*MODEL_SPACE
340
20
  0
BLOCK_RECORD
  5
B
100
AcDbSymbolTableRecord
100
AcDbBlockTableRecord
  2
*PAPER_SPACE
340
21
  0
BLOCK_RECORD
  5
29
100
AcDbSymbolTableRecord
100
AcDbBlockTableRecord
  2
AI9-BLK1
340
0
102
{BLKREFS
331
2A
102
}
  0
BLOCK_RECORD
  5
30
100
AcDbSymbolTableRecord
100
AcDbBlockTableRecord
  2
AI9-BLK2
340
0
102
{BLKREFS
331
31
102
}
  0
BLOCK_RECORD
  5
33
100
AcDbSymbolTableRecord
100
AcDbBlockTableRecord
  2
AI9-BLK3
340
0
102
{BLKREFS
331
34
102
}
  0
BLOCK_RECORD
  5
39
100
AcDbSymbolTableRecord
100
AcDbBlockTableRecord
  2
AI9-BLK4
340
0
102
{BLKREFS
331
3A
102
}
  0
BLOCK_RECORD
  5
41
100
AcDbSymbolTableRecord
100
AcDbBlockTableRecord
  2
AI9-BLK5
340
0
102
{BLKREFS
331
42
102
}
  0
BLOCK_RECORD
  5
48
100
AcDbSymbolTableRecord
100
AcDbBlockTableRecord
  2
AI9-BLK6
340
0
102
{BLKREFS
331
49
102
}
  0
BLOCK_RECORD
  5
4B
100
AcDbSymbolTableRecord
100
AcDbBlockTableRecord
  2
AI9-BLK7
340
0
102
{BLKREFS
331
4C
102
}
  0
BLOCK_RECORD
  5
51
100
AcDbSymbolTableRecord
100
AcDbBlockTableRecord
  2
AI9-BLK8
340
0
102
{BLKREFS
331
52
102
}
  0
BLOCK_RECORD
  5
5F
100
AcDbSymbolTableRecord
100
AcDbBlockTableRecord
  2
AI9-BLK9
340
0
102
{BLKREFS
331
60
102
}
  0
BLOCK_RECORD
  5
62
100
AcDbSymbolTableRecord
100
AcDbBlockTableRecord
  2
AI9-BLK10
340
0
102
{BLKREFS
331
63
102
}
  0
BLOCK_RECORD
  5
69
100
AcDbSymbolTableRecord
100
AcDbBlockTableRecord
  2
AI9-BLK11
340
0
102
{BLKREFS
331
6A
102
}
  0
BLOCK_RECORD
  5
75
100
AcDbSymbolTableRecord
100
AcDbBlockTableRecord
  2
AI9-BLK12
340
0
102
{BLKREFS
331
76
102
}
  0
BLOCK_RECORD
  5
7F
100
AcDbSymbolTableRecord
100
AcDbBlockTableRecord
  2
AI9-BLK13
340
0
102
{BLKREFS
331
80
102
}
  0
BLOCK_RECORD
  5
84
100
AcDbSymbolTableRecord
100
AcDbBlockTableRecord
  2
AI9-BLK14
340
0
102
{BLKREFS
331
85
102
}
  0
BLOCK_RECORD
  5
89
100
AcDbSymbolTableRecord
100
AcDbBlockTableRecord
  2
AI9-BLK15
340
0
102
{BLKREFS
331
8A
102
}
  0
BLOCK_RECORD
  5
8F
100
AcDbSymbolTableRecord
100
AcDbBlockTableRecord
  2
AI9-BLK16
340
0
102
{BLKREFS
331
90
102
}
  0
BLOCK_RECORD
  5
94
100
AcDbSymbolTableRecord
100
AcDbBlockTableRecord
  2
AI9-BLK17
340
0
102
{BLKREFS
331
95
102
}
  0
BLOCK_RECORD
  5
99
100
AcDbSymbolTableRecord
100
AcDbBlockTableRecord
  2
AI9-BLK18
340
0
102
{BLKREFS
331
9A
102
}
  0
BLOCK_RECORD
  5
9E
100
AcDbSymbolTableRecord
100
AcDbBlockTableRecord
  2
AI9-BLK19
340
0
102
{BLKREFS
331
9F
102
}
  0
ENDTAB
  0
ENDSEC
  0
SECTION
  2
BLOCKS
  0
BLOCK
  5
D
100
AcDbEntity
  8
0
100
AcDbBlockBegin
  2
*MODEL_SPACE
 70
     0
 10
0.0
 20
0.0
 30
0.0
  3
*MODEL_SPACE
  1

  0
ENDBLK
  5
E
100
AcDbEntity
  8
0
100
AcDbBlockEnd
  0
BLOCK
  5
F
100
AcDbEntity
 67
     1
  8
0
100
AcDbBlockBegin
  2
*PAPER_SPACE
 70
     0
 10
0.0
 20
0.0
 30
0.0
  3
*PAPER_SPACE
  1

  0
ENDBLK
  5
10
100
AcDbEntity
 67
     1
  8
0
100
AcDbBlockEnd
  0
BLOCK
  5
2B
100
AcDbEntity
  8
ORGANIC
 62
     7
100
AcDbBlockBegin
  2
AI9-BLK1
 70
     0
 10
0.0
 20
0.0
 30
0.0
  3
AI9-BLK1
  1

  0
SPLINE
  5
B4
100
AcDbEntity
  8
ORGANIC
  6
AI9-LType11
 62
     7
100
AcDbSpline
210
0.0
220
0.0
230
1.0
 70
     8
 71
     3
 72
    11
 73
     7
 74
     0
 42
0.00000001
 43
0.00000001
 40
0.0
 40
0.0
 40
0.0
 40
0.0
 40
1.0
 40
1.0
 40
1.0
 40
2.0
 40
2.0
 40
2.0
 40
2.0
 10
170.93426920572915
 20
-67.305366346571176
 30
0.0
 10
169.91107584635415
 20
-64.577884250217011
 30
0.0
 10
164.09506564670139
 20
-62.749916585286449
 30
0.0
 10
152.54503851996526
 20
-59.426088460286451
 30
0.0
 10
101.27857259114582
 20
-45.965411376953121
 30
0.0
 10
-59.31179741753472
 20
-1.0523905436197916
 30
0.0
 10
-200.51041395399304
 20
-4.1312723795572914
 30
0.0
  0
SPLINE
  5
B2
100
AcDbEntity
  8
ORGANIC
  6
AI9-LType10
 62
     7
100
AcDbSpline
210
0.0
220
0.0
230
1.0
 70
     8
 71
     3
 72
     8
 73
     4
 74
     0
 42
0.00000001
 43
0.00000001
 40
0.0
 40
0.0
 40
0.0
 40
0.0
 40
1.0
 40
1.0
 40
1.0
 40
1.0
 10
165.08656412760416
 20
49.041020372178814
 30
0.0
 10
236.34767523871525
 20
2.4743537055121525
 30
0.0
 10
264.30255805121527
 20
-48.559568277994785
 30
0.0
 10
263.58666720920138
 20
-77.872507731119782
 30
0.0
  0
SPLINE
  5
B0
100
AcDbEntity
  8
ORGANIC
  6
AI9-LType9
 62
     7
100
AcDbSpline
210
0.0
220
0.0
230
1.0
 70
     8
 71
     3
 72
     8
 73
     4
 74
     0
 42
0.00000001
 43
0.00000001
 40
0.0
 40
0.0
 40
0.0
 40
0.0
 40
1.0
 40
1.0
 40
1.0
 40
1.0
 10
-553.18156602647559
 20
-248.86362101236978
 30
0.0
 10
-320.97472330729164
 20
-40.730244276258674
 30
0.0
 10
-572.88320583767359
 20
209.06105482313367
 30
0.0
 10
-727.18989393446179
 20
399.47010430230029
 30
0.0
  0
SPLINE
  5
AE
100
AcDbEntity
  8
ORGANIC
  6
AI9-LType8
 62
     7
100
AcDbSpline
210
0.0
220
0.0
230
1.0
 70
     8
 71
     3
 72
    11
 73
     7
 74
     0
 42
0.00000001
 43
0.00000001
 40
0.0
 40
0.0
 40
0.0
 40
0.0
 40
1.0
 40
1.0
 40
1.0
 40
2.0
 40
2.0
 40
2.0
 40
2.0
 10
-532.13582221137153
 20
148.58722669813366
 30
0.0
 10
-523.13206515842012
 20
176.6452901204427
 30
0.0
 10
-506.43592664930549
 20
181.71595391167534
 30
0.0
 10
-473.82654758029508
 20
176.47251858181423
 30
0.0
 10
-313.54726969401037
 20
155.34598727756074
 30
0.0
 10
107.87455240885416
 20
51.186970350477424
 30
0.0
 10
252.74012858072913
 20
-39.321544731987842
 30
0.0
  0
SPLINE
  5
AC
100
AcDbEntity
  8
ORGANIC
  6
AI9-LType7
 62
     7
100
AcDbSpline
210
0.0
220
0.0
230
1.0
 70
     8
 71
     3
 72
     8
 73
     4
 74
     0
 42
0.00000001
 43
0.00000001
 40
0.0
 40
0.0
 40
0.0
 40
0.0
 40
1.0
 40
1.0
 40
1.0
 40
1.0
 10
-740.68088785807288
 20
-225.51965399848089
 30
0.0
 10
-387.54206407335067
 20
-180.39992743598089
 30
0.0
 10
-661.50311957465271
 20
248.92218763563366
 30
0.0
 10
-738.25295681423609
 20
399.46441989474823
 30
0.0
  0
SPLINE
  5
AA
100
AcDbEntity
  8
ORGANIC
  6
AI9-LType6
 62
     7
100
AcDbSpline
210
0.0
220
0.0
230
1.0
 70
     8
 71
     3
 72
    11
 73
     7
 74
     0
 42
0.00000001
 43
0.00000001
 40
0.0
 40
0.0
 40
0.0
 40
0.0
 40
1.0
 40
1.0
 40
1.0
 40
2.0
 40
2.0
 40
2.0
 40
2.0
 10
-682.85754394531239
 20
295.69332071940102
 30
0.0
 10
-718.75578342013887
 20
203.04367879231768
 30
0.0
 10
-726.41130235460059
 20
101.6858690049913
 30
0.0
 10
-691.87232530381937
 20
42.438494873046871
 30
0.0
 10
-653.38991970486109
 20
-26.895085313585067
 30
0.0
 10
-566.17457139756937
 20
-60.325947401258674
 30
0.0
 10
-590.12504747178809
 20
-147.33734605577254
 30
0.0
  0
SPLINE
  5
A8
100
AcDbEntity
  8
ORGANIC
  6
AI9-LType5
 62
     7
100
AcDbSpline
210
0.0
220
0.0
230
1.0
 70
     8
 71
     3
 72
     8
 73
     4
 74
     0
 42
0.00000001
 43
0.00000001
 40
0.0
 40
0.0
 40
0.0
 40
0.0
 40
1.0
 40
1.0
 40
1.0
 40
1.0
 10
-711.33694254557281
 20
186.07796156141492
 30
0.0
 10
-634.6015747070312
 20
145.50214369032116
 30
0.0
 10
-587.05219455295139
 20
85.201259358723945
 30
0.0
 10
-568.39217936197906
 20
-0.4078131781684027
 30
0.0
  0
SPLINE
  5
A6
100
AcDbEntity
  8
ORGANIC
  6
AI9-LType4
 62
     7
100
AcDbSpline
210
0.0
220
0.0
230
1.0
 70
     8
 71
     3
 72
    14
 73
    10
 74
     0
 42
0.00000001
 43
0.00000001
 40
0.0
 40
0.0
 40
0.0
 40
0.0
 40
1.0
 40
1.0
 40
1.0
 40
2.0
 40
2.0
 40
2.0
 40
3.0
 40
3.0
 40
3.0
 40
3.0
 10
254.16915418836803
 20
-42.178906928168402
 30
0.0
 10
-124.67903917100693
 20
60.851496717664922
 30
0.0
 10
-359.72894694010415
 20
-35.250475396050341
 30
0.0
 10
-459.13235405815971
 20
-75.723112657335065
 30
0.0
 10
-486.91050347222216
 20
-87.999710422092008
 30
0.0
 10
-527.26600748697911
 20
-103.83543633355033
 30
0.0
 10
-547.79894883897566
 20
-122.72144978841145
 30
0.0
 10
-573.27112358940963
 20
-142.79257609049478
 30
0.0
 10
-564.53160536024302
 20
-138.72460734049477
 30
0.0
 10
-623.36091715494786
 20
-183.255911593967
 30
0.0
  0
LINE
  5
A4
100
AcDbEntity
  8
ORGANIC
  6
AI9-LType3
 62
     7
100
AcDbLine
 10
-740.340685
 20
-225.495538
 30
0.0
 11
-745.769122
 21
-226.022982
 31
0.0
  0
INSERT
  5
9F
100
AcDbEntity
  8
ORGANIC
 62
     7
100
AcDbBlockReference
  2
AI9-BLK19
 10
215.21546
 20
-12.758653
 30
0.0
  0
INSERT
  5
9A
100
AcDbEntity
  8
ORGANIC
 62
     7
100
AcDbBlockReference
  2
AI9-BLK18
 10
-592.750469
 20
75.072593
 30
0.0
  0
INSERT
  5
95
100
AcDbEntity
  8
ORGANIC
 62
     7
100
AcDbBlockReference
  2
AI9-BLK17
 10
-140.531818
 20
69.752762
 30
0.0
  0
INSERT
  5
90
100
AcDbEntity
  8
ORGANIC
 62
     7
100
AcDbBlockReference
  2
AI9-BLK16
 10
-651.187556
 20
85.916806
 30
0.0
  0
INSERT
  5
8A
100
AcDbEntity
  8
ORGANIC
 62
     7
100
AcDbBlockReference
  2
AI9-BLK15
 10
-650.081681
 20
74.375477
 30
0.0
  0
INSERT
  5
85
100
AcDbEntity
  8
ORGANIC
 62
     7
100
AcDbBlockReference
  2
AI9-BLK14
 10
-638.85954
 20
94.191322
 30
0.0
  0
INSERT
  5
80
100
AcDbEntity
  8
ORGANIC
 62
     7
100
AcDbBlockReference
  2
AI9-BLK13
 10
-185.293599
 20
-89.305057
 30
0.0
  0
INSERT
  5
76
100
AcDbEntity
  8
ORGANIC
  6
AI9-LType1
 62
     7
100
AcDbBlockReference
  2
AI9-BLK12
 10
-743.054903
 20
-225.75926
 30
0.0
  0
MTEXT
  5
74
100
AcDbEntity
  8
ORGANIC
  6
AI9-LType1
 62
     7
100
AcDbMText
 10
307.896796
 20
-367.820997
 30
0.0
 40
18.898809
 41
0.0
 71
     1
 72
     2
  1
\fComic Sans MS |b1|i0;\H18.8988;\C7;\U+004C\U+2018\U+004F\U+0072\U+0067\U+0061\U+006E\U+0069\U+0063
  7
STD
210
0.0
220
0.0
230
1.0
 73
     1
 44
1.0
  0
SPLINE
  5
73
100
AcDbEntity
  8
ORGANIC
 62
     7
100
AcDbSpline
210
0.0
220
0.0
230
1.0
 70
     8
 71
     3
 72
     8
 73
     4
 74
     0
 42
0.00000001
 43
0.00000001
 40
0.0
 40
0.0
 40
0.0
 40
0.0
 40
1.0
 40
1.0
 40
1.0
 40
1.0
 10
-736.22017822265616
 20
-378.30757175021699
 30
0.0
 10
-738.20541449652774
 20
-379.7645026312934
 30
0.0
 10
-740.1617119683159
 20
-381.20248548719616
 30
0.0
 10
-742.08769259982637
 20
-382.62048678927948
 30
0.0
  0
SPLINE
  5
72
100
AcDbEntity
  8
ORGANIC
 62
     7
100
AcDbSpline
210
0.0
220
0.0
230
1.0
 70
     8
 71
     3
 72
     8
 73
     4
 74
     0
 42
0.00000001
 43
0.00000001
 40
0.0
 40
0.0
 40
0.0
 40
0.0
 40
1.0
 40
1.0
 40
1.0
 40
1.0
 10
-404.61147867838537
 20
-152.8016120062934
 30
0.0
 10
-489.95407307942702
 20
-203.0311041937934
 30
0.0
 10
-644.24680853949644
 20
-310.8209072536892
 30
0.0
 10
-736.22017822265616
 20
-378.30757175021699
 30
0.0
  0
SPLINE
  5
71
100
AcDbEntity
  8
ORGANIC
 62
     7
100
AcDbSpline
210
0.0
220
0.0
230
1.0
 70
     8
 71
     3
 72
    17
 73
    13
 74
     0
 42
0.00000001
 43
0.00000001
 40
0.0
 40
0.0
 40
0.0
 40
0.0
 40
1.0
 40
1.0
 40
1.0
 40
2.0
 40
2.0
 40
2.0
 40
3.0
 40
3.0
 40
3.0
 40
4.0
 40
4.0
 40
4.0
 40
4.0
 10
498.13910319010409
 20
-125.46236775716145
 30
0.0
 10
403.47339138454856
 20
-104.29845716688367
 30
0.0
 10
325.92291395399303
 20
-86.362601047091999
 30
0.0
 10
248.14368218315971
 20
-75.677981906467011
 30
0.0
 10
7.127558051215277
 20
-45.384568277994788
 30
0.0
 10
-176.66949191623263
 20
-59.848457166883676
 30
0.0
 10
-306.10207383897568
 20
-105.41294555664062
 30
0.0
 10
-309.94662814670136
 20
-106.92878757052951
 30
0.0
 10
-313.4756117078993
 20
-108.32095065646701
 30
0.0
 10
-316.74052870008677
 20
-109.6135504828559
 30
0.0
 10
-356.35103081597219
 20
-127.69926825629339
 30
0.0
 10
-356.35103081597219
 20
-127.69926825629339
 30
0.0
 10
-404.59442545572915
 20
-152.79954494900173
 30
0.0
  0
INSERT
  5
60
100
AcDbEntity
  8
ORGANIC
  6
AI9-LType2
 62
     7
100
AcDbBlockReference
  2
AI9-BLK9
 10
-374.404279
 20
-148.548297
 30
0.0
  0
LINE
  5
5E
100
AcDbEntity
  8
ORGANIC
  6
AI9-LType2
 62
   184
100
AcDbLine
 10
-745.879192
 20
-97.475101
 30
0.0
 11
-716.29943
 21
-97.475101
 31
0.0
  0
LINE
  5
5D
100
AcDbEntity
  8
ORGANIC
  6
AI9-LType2
 62
   184
100
AcDbLine
 10
-745.892973
 20
206.531149
 30
0.0
 11
-716.313383
 21
206.531149
 31
0.0
  0
LINE
  5
5C
100
AcDbEntity
  8
ORGANIC
  6
AI9-LType2
 62
     7
100
AcDbLine
 10
-741.855838
 20
399.585687
 30
0.0
 11
-741.855838
 21
-382.527469
 31
0.0
  0
LINE
  5
5B
100
AcDbEntity
  8
ORGANIC
 62
     7
100
AcDbLine
 10
-745.861278
 20
399.725903
 30
0.0
 11
-745.861278
 21
-382.527469
 31
0.0
  0
SPLINE
  5
5A
100
AcDbEntity
  8
ORGANIC
 62
     7
100
AcDbSpline
210
0.0
220
0.0
230
1.0
 70
     8
 71
     3
 72
    14
 73
    10
 74
     0
 42
0.00000001
 43
0.00000001
 40
0.0
 40
0.0
 40
0.0
 40
0.0
 40
1.0
 40
1.0
 40
1.0
 40
2.0
 40
2.0
 40
2.0
 40
3.0
 40
3.0
 40
3.0
 40
3.0
 10
-717.87004937065967
 20
399.55812649197043
 30
0.0
 10
-644.50260687934019
 20
379.44100816514754
 30
0.0
 10
-550.20018039279512
 20
346.43527086046004
 30
0.0
 10
-445.83893636067705
 20
305.53268568250866
 30
0.0
 10
-274.61269531249997
 20
240.02574530707463
 30
0.0
 10
-74.800257703993054
 20
156.58553263346352
 30
0.0
 10
104.14627007378471
 20
76.546318223741309
 30
0.0
 10
256.15559624565969
 20
9.0992723253038186
 30
0.0
 10
436.19421929253468
 20
-76.367690022786448
 30
0.0
 10
504.19006890190968
 20
-106.39169718424478
 30
0.0
  0
LINE
  5
59
100
AcDbEntity
  8
ORGANIC
 62
     7
100
AcDbLine
 10
-745.885049
 20
399.555198
 30
0.0
 11
-717.848518
 21
399.555198
 31
0.0
  0
LINE
  5
58
100
AcDbEntity
  8
ORGANIC
 62
     7
100
AcDbLine
 10
504.114966
 20
-106.442685
 30
0.0
 11
498.163219
 21
-125.421027
 31
0.0
  0
INSERT
  5
52
100
AcDbEntity
  8
ORGANIC
 62
     7
100
AcDbBlockReference
  2
AI9-BLK8
 10
-217.873351
 20
214.473386
 30
0.0
  0
INSERT
  5
49
100
AcDbEntity
  8
ORGANIC
  6
AI9-LType2
 62
     7
100
AcDbBlockReference
  2
AI9-BLK6
 10
-217.856297
 20
214.552709
 30
0.0
  0
INSERT
  5
42
100
AcDbEntity
  8
ORGANIC
  6
AI9-LType2
 62
     7
100
AcDbBlockReference
  2
AI9-BLK5
 10
-445.856248
 20
305.513307
 30
0.0
  0
INSERT
  5
3A
100
AcDbEntity
  8
ORGANIC
 62
     7
100
AcDbBlockReference
  2
AI9-BLK4
 10
119.133469
 20
69.443393
 30
0.0
  0
INSERT
  5
31
100
AcDbEntity
  8
ORGANIC
  6
AI9-LType1
 62
     7
100
AcDbBlockReference
  2
AI9-BLK2
 10
119.146216
 20
69.555703
 30
0.0
  0
SPLINE
  5
2F
100
AcDbEntity
  8
ORGANIC
  6
AI9-LType1
 62
     7
100
AcDbSpline
210
0.0
220
0.0
230
1.0
 70
     8
 71
     3
 72
     8
 73
     4
 74
     0
 42
0.00000001
 43
0.00000001
 40
0.0
 40
0.0
 40
0.0
 40
0.0
 40
1.0
 40
1.0
 40
1.0
 40
1.0
 10
-736.13163926866309
 20
-378.05401272243921
 30
0.0
 10
-736.12561035156239
 20
-378.17321302625862
 30
0.0
 10
-736.11958143446179
 20
-378.29275783962669
 30
0.0
 10
-736.11355251736109
 20
-378.41230265299475
 30
0.0
  0
SPLINE
  5
2E
100
AcDbEntity
  8
ORGANIC
  6
AI9-LType1
 62
     7
100
AcDbSpline
210
0.0
220
0.0
230
1.0
 70
     8
 71
     3
 72
     8
 73
     4
 74
     0
 42
0.00000001
 43
0.00000001
 40
0.0
 40
0.0
 40
0.0
 40
0.0
 40
1.0
 40
1.0
 40
1.0
 40
1.0
 10
-741.81001790364576
 20
-135.43936428493922
 30
0.0
 10
-739.08305257161453
 20
-275.88660549587672
 30
0.0
 10
-740.46470811631934
 20
-291.52561645507808
 30
0.0
 10
-736.13163926866309
 20
-378.05401272243921
 30
0.0
  0
LINE
  5
2C
100
AcDbEntity
  8
ORGANIC
 62
     7
100
AcDbLine
 10
-745.929663
 20
-382.599816
 30
0.0
 11
-741.886499
 21
-382.599816
 31
0.0
  0
ENDBLK
  5
B5
100
AcDbEntity
  8
ORGANIC
100
AcDbBlockEnd
  0
BLOCK
  5
32
100
AcDbEntity
  8
ORGANIC
  6
AI9-LType1
 62
     7
100
AcDbBlockBegin
  2
AI9-BLK2
 70
     0
 10
0.0
 20
0.0
 30
0.0
  3
AI9-BLK2
  1

  0
INSERT
  5
34
100
AcDbEntity
  8
ORGANIC
  6
AI9-LType1
 62
     7
100
AcDbBlockReference
  2
AI9-BLK3
 10
0.0
 20
0.0
 30
0.0
  0
ENDBLK
  5
38
100
AcDbEntity
  8
ORGANIC
100
AcDbBlockEnd
  0
BLOCK
  5
35
100
AcDbEntity
  8
ORGANIC
  6
AI9-LType1
 62
     7
100
AcDbBlockBegin
  2
AI9-BLK3
 70
     0
 10
0.0
 20
0.0
 30
0.0
  3
AI9-BLK3
  1

  0
HATCH
  5
36
100
AcDbEntity
  8
ORGANIC
 62
     7
100
AcDbHatch
 10
0.0
 20
0.0
 30
0.0
210
0.0
220
0.0
230
1.0
  2
SOLID
 70
     1
 71
     0
 91
        1
 92
        1
 93
        1
 72
     4
 94
        3
 73
     0
 74
     0
 95
       14
 96
       10
 40
0.0
 40
0.0
 40
0.0
 40
0.0
 40
1.0
 40
1.0
 40
1.0
 40
2.0
 40
2.0
 40
2.0
 40
3.0
 40
3.0
 40
3.0
 40
3.0
 10
-0.0165364583333333
 20
-0.1756998697916667
 10
0.2087727864583333
 20
-0.1756998697916667
 10
0.2439127604166667
 20
0.1756998697916667
 10
0.0165364583333333
 20
0.1756998697916667
 10
-0.2094618055555556
 20
0.1756998697916667
 10
-0.2439127604166667
 20
-0.1756998697916667
 10
-0.0165364583333333
 20
-0.1756998697916667
 10
-0.0165364583333333
 20
-0.1756998697916667
 10
-0.0165364583333333
 20
-0.1756998697916667
 10
-0.0165364583333333
 20
-0.1756998697916667
 97
        0
 75
     2
 76
     1
 98
        1
 10
0.0
 20
0.0
  0
ENDBLK
  5
37
100
AcDbEntity
  8
ORGANIC
100
AcDbBlockEnd
  0
BLOCK
  5
3B
100
AcDbEntity
  8
ORGANIC
 62
     7
100
AcDbBlockBegin
  2
AI9-BLK4
 70
     0
 10
0.0
 20
0.0
 30
0.0
  3
AI9-BLK4
  1

  0
LINE
  5
3F
100
AcDbEntity
  8
ORGANIC
  6
AI9-LType2
 62
     7
100
AcDbLine
 10
0.012058
 20
14.945685
 30
0.0
 11
0.012058
 21
-15.155147
 31
0.0
  0
LINE
  5
3E
100
AcDbEntity
  8
ORGANIC
  6
AI9-LType2
 62
     7
100
AcDbLine
 10
15.106399
 20
0.081132
 30
0.0
 11
-15.113978
 21
0.081132
 31
0.0
  0
CIRCLE
  5
3D
100
AcDbEntity
  8
ORGANIC
  6
AI9-LType2
 62
     7
100
AcDbCircle
 10
0.0
 20
0.000172
 30
0.0
 40
15.016138
  0
ENDBLK
  5
40
100
AcDbEntity
  8
ORGANIC
100
AcDbBlockEnd
  0
BLOCK
  5
43
100
AcDbEntity
  8
ORGANIC
  6
AI9-LType2
 62
     7
100
AcDbBlockBegin
  2
AI9-BLK5
 70
     0
 10
0.0
 20
0.0
 30
0.0
  3
AI9-BLK5
  1

  0
LINE
  5
46
100
AcDbEntity
  8
ORGANIC
  6
AI9-LType2
 62
     7
100
AcDbLine
 10
0.012488
 20
14.945599
 30
0.0
 11
0.012488
 21
-15.155233
 31
0.0
  0
LINE
  5
45
100
AcDbEntity
  8
ORGANIC
  6
AI9-LType2
 62
     7
100
AcDbLine
 10
15.106485
 20
0.081046
 30
0.0
 11
-15.11372
 21
0.081046
 31
0.0
  0
CIRCLE
  5
44
100
AcDbEntity
  8
ORGANIC
  6
AI9-LType2
 62
     7
100
AcDbCircle
 10
0.0
 20
0.000086
 30
0.0
 40
15.016224
  0
ENDBLK
  5
47
100
AcDbEntity
  8
ORGANIC
100
AcDbBlockEnd
  0
BLOCK
  5
4A
100
AcDbEntity
  8
ORGANIC
  6
AI9-LType2
 62
     7
100
AcDbBlockBegin
  2
AI9-BLK6
 70
     0
 10
0.0
 20
0.0
 30
0.0
  3
AI9-BLK6
  1

  0
INSERT
  5
4C
100
AcDbEntity
  8
ORGANIC
  6
AI9-LType2
 62
     7
100
AcDbBlockReference
  2
AI9-BLK7
 10
0.0
 20
0.0
 30
0.0
  0
ENDBLK
  5
50
100
AcDbEntity
  8
ORGANIC
100
AcDbBlockEnd
  0
BLOCK
  5
4D
100
AcDbEntity
  8
ORGANIC
  6
AI9-LType2
 62
     7
100
AcDbBlockBegin
  2
AI9-BLK7
 70
     0
 10
0.0
 20
0.0
 30
0.0
  3
AI9-BLK7
  1

  0
HATCH
  5
4E
100
AcDbEntity
  8
ORGANIC
 62
     7
100
AcDbHatch
 10
0.0
 20
0.0
 30
0.0
210
0.0
220
0.0
230
1.0
  2
SOLID
 70
     1
 71
     0
 91
        1
 92
        1
 93
        1
 72
     4
 94
        3
 73
     0
 74
     0
 95
       14
 96
       10
 40
0.0
 40
0.0
 40
0.0
 40
0.0
 40
1.0
 40
1.0
 40
1.0
 40
2.0
 40
2.0
 40
2.0
 40
3.0
 40
3.0
 40
3.0
 40
3.0
 10
-0.0165364583333333
 20
-0.1756998697916667
 10
0.2091172960069444
 20
-0.1756998697916667
 10
0.2439127604166667
 20
0.1756998697916667
 10
0.0165364583333333
 20
0.1756998697916667
 10
-0.2091172960069444
 20
0.1756998697916667
 10
-0.2439127604166667
 20
-0.1756998697916667
 10
-0.0165364583333333
 20
-0.1756998697916667
 10
-0.0165364583333333
 20
-0.1756998697916667
 10
-0.0165364583333333
 20
-0.1756998697916667
 10
-0.0165364583333333
 20
-0.1756998697916667
 97
        0
 75
     2
 76
     1
 98
        1
 10
0.0
 20
0.0
  0
ENDBLK
  5
4F
100
AcDbEntity
  8
ORGANIC
100
AcDbBlockEnd
  0
BLOCK
  5
53
100
AcDbEntity
  8
ORGANIC
 62
     7
100
AcDbBlockBegin
  2
AI9-BLK8
 70
     0
 10
0.0
 20
0.0
 30
0.0
  3
AI9-BLK8
  1

  0
LINE
  5
56
100
AcDbEntity
  8
ORGANIC
  6
AI9-LType2
 62
     7
100
AcDbLine
 10
0.012402
 20
14.945599
 30
0.0
 11
0.012402
 21
-15.155406
 31
0.0
  0
LINE
  5
55
100
AcDbEntity
  8
ORGANIC
  6
AI9-LType2
 62
     7
100
AcDbLine
 10
15.106399
 20
0.081046
 30
0.0
 11
-15.113978
 21
0.081046
 31
0.0
  0
CIRCLE
  5
54
100
AcDbEntity
  8
ORGANIC
  6
AI9-LType2
 62
     7
100
AcDbCircle
 10
0.0
 20
0.000086
 30
0.0
 40
15.016138
  0
ENDBLK
  5
57
100
AcDbEntity
  8
ORGANIC
100
AcDbBlockEnd
  0
BLOCK
  5
61
100
AcDbEntity
  8
ORGANIC
  6
AI9-LType2
 62
     7
100
AcDbBlockBegin
  2
AI9-BLK9
 70
     0
 10
0.0
 20
0.0
 30
0.0
  3
AI9-BLK9
  1

  0
INSERT
  5
6A
100
AcDbEntity
  8
ORGANIC
  6
AI9-LType2
 62
     7
100
AcDbBlockReference
  2
AI9-BLK11
 10
-30.125551
 20
-4.078476
 30
0.0
  0
INSERT
  5
63
100
AcDbEntity
  8
ORGANIC
  6
AI9-LType2
 62
     7
100
AcDbBlockReference
  2
AI9-BLK10
 10
57.669262
 20
39.102178
 30
0.0
  0
ENDBLK
  5
70
100
AcDbEntity
  8
ORGANIC
100
AcDbBlockEnd
  0
BLOCK
  5
64
100
AcDbEntity
  8
ORGANIC
  6
AI9-LType2
 62
     7
100
AcDbBlockBegin
  2
AI9-BLK10
 70
     0
 10
0.0
 20
0.0
 30
0.0
  3
AI9-BLK10
  1

  0
LINE
  5
67
100
AcDbEntity
  8
ORGANIC
  6
AI9-LType2
 62
     7
100
AcDbLine
 10
-0.19637
 20
14.94448
 30
0.0
 11
0.224103
 21
-15.153597
 31
0.0
  0
LINE
  5
66
100
AcDbEntity
  8
ORGANIC
  6
AI9-LType2
 62
     7
100
AcDbLine
 10
15.103988
 20
0.2918
 30
0.0
 11
-15.113634
 21
-0.130225
 31
0.0
  0
CIRCLE
  5
65
100
AcDbEntity
  8
ORGANIC
  6
AI9-LType2
 62
     7
100
AcDbCircle
 10
0.0
 20
0.000172
 30
0.0
 40
15.016223
  0
ENDBLK
  5
68
100
AcDbEntity
  8
ORGANIC
100
AcDbBlockEnd
  0
BLOCK
  5
6B
100
AcDbEntity
  8
ORGANIC
  6
AI9-LType2
 62
     7
100
AcDbBlockBegin
  2
AI9-BLK11
 70
     0
 10
0.0
 20
0.0
 30
0.0
  3
AI9-BLK11
  1

  0
LINE
  5
6E
100
AcDbEntity
  8
ORGANIC
  6
AI9-LType2
 62
     7
100
AcDbLine
 10
-0.196543
 20
14.944652
 30
0.0
 11
0.223931
 21
-15.153769
 31
0.0
  0
LINE
  5
6D
100
AcDbEntity
  8
ORGANIC
  6
AI9-LType2
 62
     7
100
AcDbLine
 10
15.103815
 20
0.291972
 30
0.0
 11
-15.113806
 21
-0.130052
 31
0.0
  0
CIRCLE
  5
6C
100
AcDbEntity
  8
ORGANIC
  6
AI9-LType2
 62
     7
100
AcDbCircle
 10
0.0
 20
0.000345
 30
0.0
 40
15.016223
  0
ENDBLK
  5
6F
100
AcDbEntity
  8
ORGANIC
100
AcDbBlockEnd
  0
BLOCK
  5
77
100
AcDbEntity
  8
ORGANIC
  6
AI9-LType1
 62
     7
100
AcDbBlockBegin
  2
AI9-BLK12
 70
     0
 10
0.0
 20
0.0
 30
0.0
  3
AI9-BLK12
  1

  0
POLYLINE
  5
78
100
AcDbEntity
  8
ORGANIC
 62
     7
100
AcDb2dPolyline
 66
     1
 10
0.0
 20
0.0
 30
0.0
 70
     1
  0
VERTEX
  5
79
100
AcDbEntity
  8
ORGANIC
 62
     7
100
AcDbVertex
100
AcDb2dVertex
 10
-3.101103
 20
3.71743
 30
0.0
  0
VERTEX
  5
7A
100
AcDbEntity
  8
ORGANIC
 62
     7
100
AcDbVertex
100
AcDb2dVertex
 10
-2.327334
 20
-4.244874
 30
0.0
  0
VERTEX
  5
7B
100
AcDbEntity
  8
ORGANIC
 62
     7
100
AcDbVertex
100
AcDb2dVertex
 10
3.101103
 20
-3.71743
 30
0.0
  0
VERTEX
  5
7C
100
AcDbEntity
  8
ORGANIC
 62
     7
100
AcDbVertex
100
AcDb2dVertex
 10
2.327334
 20
4.244874
 30
0.0
  0
SEQEND
  5
7D
100
AcDbEntity
  8
ORGANIC
 62
     7
  0
ENDBLK
  5
7E
100
AcDbEntity
  8
ORGANIC
100
AcDbBlockEnd
  0
BLOCK
  5
81
100
AcDbEntity
  8
ORGANIC
 62
     7
100
AcDbBlockBegin
  2
AI9-BLK13
 70
     0
 10
0.0
 20
0.0
 30
0.0
  3
AI9-BLK13
  1

  0
SPLINE
  5
82
100
AcDbEntity
  8
ORGANIC
 62
     7
100
AcDbSpline
210
0.0
220
0.0
230
1.0
 70
     8
 71
     3
 72
    59
 73
    55
 74
     0
 42
0.00000001
 43
0.00000001
 40
0.0
 40
0.0
 40
0.0
 40
0.0
 40
1.0
 40
1.0
 40
1.0
 40
2.0
 40
2.0
 40
2.0
 40
3.0
 40
3.0
 40
3.0
 40
4.0
 40
4.0
 40
4.0
 40
5.0
 40
5.0
 40
5.0
 40
6.0
 40
6.0
 40
6.0
 40
7.0
 40
7.0
 40
7.0
 40
8.0
 40
8.0
 40
8.0
 40
9.0
 40
9.0
 40
9.0
 40
10.0
 40
10.0
 40
10.0
 40
11.0
 40
11.0
 40
11.0
 40
12.0
 40
12.0
 40
12.0
 40
13.0
 40
13.0
 40
13.0
 40
14.0
 40
14.0
 40
14.0
 40
15.0
 40
15.0
 40
15.0
 40
16.0
 40
16.0
 40
16.0
 40
17.0
 40
17.0
 40
17.0
 40
18.0
 40
18.0
 40
18.0
 40
18.0
 10
-21.968857150607636
 20
88.206157769097217
 30
0.0
 10
-140.93799506293402
 20
72.012830946180543
 30
0.0
 10
-224.78679606119789
 20
37.872968207465277
 30
0.0
 10
-274.88468560112847
 20
17.474902343749999
 30
0.0
 10
-274.88468560112847
 20
17.474902343749999
 30
0.0
 10
-275.39163140190971
 20
17.268541124131943
 30
0.0
 10
-275.39163140190971
 20
17.268541124131943
 30
0.0
 10
-275.39163140190971
 20
17.268541124131943
 30
0.0
 10
-287.67718641493053
 20
11.918307834201388
 30
0.0
 10
-287.67718641493053
 20
11.918307834201388
 30
0.0
 10
-314.04129638671873
 20
0.5150417751736111
 30
0.0
 10
-346.82379150390619
 20
-13.668760850694444
 30
0.0
 10
-365.03094889322915
 20
-30.314084201388887
 30
0.0
 10
-374.15166693793401
 20
-37.502275933159716
 30
0.0
 10
-378.90452067057288
 20
-41.607107204861109
 30
0.0
 10
-383.93436008029511
 20
-45.951028103298604
 30
0.0
 10
-392.74639756944441
 20
-53.56193305121527
 30
0.0
 10
-402.73407389322915
 20
-62.188452148437491
 30
0.0
 10
-440.48146837022563
 20
-90.761385091145826
 30
0.0
 10
-440.48146837022563
 20
-90.761385091145826
 30
0.0
 10
-435.65316704644096
 20
-97.140323893229152
 30
0.0
 10
-435.65316704644096
 20
-97.140323893229152
 30
0.0
 10
-397.70010036892359
 20
-68.411328124999997
 30
0.0
 10
-387.60872667100693
 20
-59.695581054687494
 30
0.0
 10
-378.70522189670135
 20
-52.005438910590271
 30
0.0
 10
-373.73601616753467
 20
-47.713883463541663
 30
0.0
 10
-369.04259033203124
 20
-43.660039605034719
 30
0.0
 10
-360.02970377604163
 20
-36.558319769965273
 30
0.0
 10
-360.02970377604163
 20
-36.558319769965273
 30
0.0
 10
-359.90981445312497
 20
-36.463924153645827
 30
0.0
 10
-359.90981445312497
 20
-36.463924153645827
 30
0.0
 10
-359.90981445312497
 20
-36.463924153645827
 30
0.0
 10
-359.79750434027773
 20
-36.360571289062499
 30
0.0
 10
-359.79750434027773
 20
-36.360571289062499
 30
0.0
 10
-342.62266981336802
 20
-20.563085937499999
 30
0.0
 10
-310.39586859809026
 20
-6.6245741102430546
 30
0.0
 10
-284.501325141059
 20
4.5754313151041659
 30
0.0
 10
-284.501325141059
 20
4.5754313151041659
 30
0.0
 10
-272.41903076171872
 20
9.8374701605902768
 30
0.0
 10
-272.28811713324649
 20
9.8946587456597221
 30
0.0
 10
-272.21818169487847
 20
9.9229085286458325
 30
0.0
 10
-271.86798773871527
 20
10.065535481770832
 30
0.0
 10
-271.86798773871527
 20
10.065535481770832
 30
0.0
 10
-172.12454969618054
 20
50.677354600694443
 30
0.0
 10
61.455852593315967
 20
145.78231608072915
 30
0.0
 10
438.41268853081596
 20
43.26626519097222
 30
0.0
 10
438.41268853081596
 20
43.26626519097222
 30
0.0
 10
440.51212972005203
 20
50.986035156249997
 30
0.0
 10
440.51212972005203
 20
50.986035156249997
 30
0.0
 10
352.41828206380205
 20
74.943573676215266
 30
0.0
 10
265.70178358289928
 20
89.756106228298606
 30
0.0
 10
182.77144504123262
 20
95.011771647135404
 30
0.0
 10
112.71129421657984
 20
99.451638454861097
 30
0.0
 10
43.826782226562493
 20
97.162027994791657
 30
0.0
 10
-21.968857150607636
 20
88.206157769097217
 30
0.0
  0
ENDBLK
  5
83
100
AcDbEntity
  8
ORGANIC
100
AcDbBlockEnd
  0
BLOCK
  5
86
100
AcDbEntity
  8
ORGANIC
 62
     7
100
AcDbBlockBegin
  2
AI9-BLK14
 70
     0
 10
0.0
 20
0.0
 30
0.0
  3
AI9-BLK14
  1

  0
SPLINE
  5
87
100
AcDbEntity
  8
ORGANIC
 62
     7
100
AcDbSpline
210
0.0
220
0.0
230
1.0
 70
     8
 71
     3
 72
    26
 73
    22
 74
     0
 42
0.00000001
 43
0.00000001
 40
0.0
 40
0.0
 40
0.0
 40
0.0
 40
1.0
 40
1.0
 40
1.0
 40
2.0
 40
2.0
 40
2.0
 40
3.0
 40
3.0
 40
3.0
 40
4.0
 40
4.0
 40
4.0
 40
5.0
 40
5.0
 40
5.0
 40
6.0
 40
6.0
 40
6.0
 40
7.0
 40
7.0
 40
7.0
 40
7.0
 10
-74.34722764756944
 20
88.350593397352426
 30
0.0
 10
-55.390761990017353
 20
78.326915825737842
 30
0.0
 10
-38.089664713541666
 20
66.961890326605896
 30
0.0
 10
-22.924354383680555
 20
54.571432156032984
 30
0.0
 10
-7.6362263997395825
 20
42.080549452039925
 30
0.0
 10
6.0004950629340268
 20
28.123261854383678
 30
0.0
 10
17.606849500868055
 20
13.087142605251735
 30
0.0
 10
29.295197211371526
 20
-2.0552578396267358
 30
0.0
 10
39.320941840277776
 20
-18.805139838324649
 30
0.0
 10
47.405891927083331
 20
-36.697415500217012
 30
0.0
 10
55.542001681857634
 20
-54.703551567925345
 30
0.0
 10
61.986225043402769
 20
-74.471164957682291
 30
0.0
 10
66.559072536892359
 20
-95.451107449001725
 30
0.0
 10
66.559072536892359
 20
-95.451107449001725
 30
0.0
 10
74.375649685329861
 20
-93.747335476345484
 30
0.0
 10
74.375649685329861
 20
-93.747335476345484
 30
0.0
 10
55.72459174262152
 20
-8.1799485948350679
 30
0.0
 10
8.3002685546874986
 20
53.698100450303812
 30
0.0
 10
-70.607576497395826
 20
95.422685411241318
 30
0.0
 10
-70.607576497395826
 20
95.422685411241318
 30
0.0
 10
-74.34722764756944
 20
88.350593397352426
 30
0.0
 10
-74.34722764756944
 20
88.350593397352426
 30
0.0
  0
ENDBLK
  5
88
100
AcDbEntity
  8
ORGANIC
100
AcDbBlockEnd
  0
BLOCK
  5
8B
100
AcDbEntity
  8
ORGANIC
 62
     7
100
AcDbBlockBegin
  2
AI9-BLK15
 70
     0
 10
0.0
 20
0.0
 30
0.0
  3
AI9-BLK15
  1

  0
SPLINE
  5
8D
100
AcDbEntity
  8
ORGANIC
 62
     7
100
AcDbSpline
210
0.0
220
0.0
230
1.0
 70
     8
 71
     3
 72
    53
 73
    49
 74
     0
 42
0.00000001
 43
0.00000001
 40
0.0
 40
0.0
 40
0.0
 40
0.0
 40
1.0
 40
1.0
 40
1.0
 40
2.0
 40
2.0
 40
2.0
 40
3.0
 40
3.0
 40
3.0
 40
4.0
 40
4.0
 40
4.0
 40
5.0
 40
5.0
 40
5.0
 40
6.0
 40
6.0
 40
6.0
 40
7.0
 40
7.0
 40
7.0
 40
8.0
 40
8.0
 40
8.0
 40
9.0
 40
9.0
 40
9.0
 40
10.0
 40
10.0
 40
10.0
 40
11.0
 40
11.0
 40
11.0
 40
12.0
 40
12.0
 40
12.0
 40
13.0
 40
13.0
 40
13.0
 40
14.0
 40
14.0
 40
14.0
 40
15.0
 40
15.0
 40
15.0
 40
16.0
 40
16.0
 40
16.0
 40
16.0
 10
-67.692767333984364
 20
82.352337646484372
 30
0.0
 10
-67.939608425564231
 20
77.101150851779508
 30
0.0
 10
-68.062426079644098
 20
71.935402425130206
 30
0.0
 10
-68.062426079644098
 20
66.861121283637146
 30
0.0
 10
-68.062426079644098
 20
26.436370849609371
 30
0.0
 10
-60.264969211154508
 20
-8.1759867350260418
 30
0.0
 10
-45.258650037977425
 20
-33.929453531901039
 30
0.0
 10
-31.980390760633679
 20
-57.831870524088536
 30
0.0
 10
-13.203070068359374
 20
-77.362289089626728
 30
0.0
 10
4.9572340223524298
 20
-96.249336073133676
 30
0.0
 10
22.531355116102429
 20
-114.52694566514757
 30
0.0
 10
39.130686442057289
 20
-131.79066365559893
 30
0.0
 10
49.480270046657985
 20
-151.57791408962672
 30
0.0
 10
56.569932047526038
 20
-165.13264227973087
 30
0.0
 10
60.078245035807285
 20
-178.70356241861978
 30
0.0
 10
60.078245035807285
 20
-193.05548570421004
 30
0.0
 10
60.078245035807285
 20
-201.89801228841145
 30
0.0
 10
58.746371120876731
 20
-211.037161593967
 30
0.0
 10
56.100021023220478
 20
-220.65138956705727
 30
0.0
 10
56.100021023220478
 20
-220.65138956705727
 30
0.0
 10
63.813245307074645
 20
-222.77425740559895
 30
0.0
 10
63.813245307074645
 20
-222.77425740559895
 30
0.0
 10
67.768731689453119
 20
-208.40373060438367
 30
0.0
 10
68.946609836154508
 20
-195.08878106011284
 30
0.0
 10
67.414059109157975
 20
-182.06907619900173
 30
0.0
 10
66.038087972005201
 20
-170.37780015733506
 30
0.0
 10
62.490500895182286
 20
-159.19123060438366
 30
0.0
 10
56.569070773654509
 20
-147.86995781792533
 30
0.0
 10
45.689803738064235
 20
-127.0701938205295
 30
0.0
 10
28.705482991536456
 20
-109.40581122504339
 30
0.0
 10
10.723979356553819
 20
-90.704799397786445
 30
0.0
 10
-7.0942267523871525
 20
-72.173114013671864
 30
0.0
 10
-25.519286431206595
 20
-53.010631646050342
 30
0.0
 10
-38.293183729383678
 20
-29.995843505859373
 30
0.0
 10
-38.293183729383678
 20
-29.995843505859373
 30
0.0
 10
-38.335041639539924
 20
-29.922462972005206
 30
0.0
 10
-38.335041639539924
 20
-29.922462972005206
 30
0.0
 10
-54.454643419053816
 20
-2.2710930718315971
 30
0.0
 10
-61.843167453342005
 20
36.423013644748259
 30
0.0
 10
-59.701696099175344
 20
81.976822238498258
 30
0.0
 10
-57.644457329644091
 20
125.73849216037326
 30
0.0
 10
-47.043898518880205
 20
173.42223103841144
 30
0.0
 10
-29.046030680338539
 20
219.87262573242185
 30
0.0
 10
-29.046030680338539
 20
219.87262573242185
 30
0.0
 10
-36.505695936414931
 20
222.76306084526908
 30
0.0
 10
-36.505695936414931
 20
222.76306084526908
 30
0.0
 10
-54.811210801866316
 20
175.51822713216146
 30
0.0
 10
-65.595565456814228
 20
126.96511840820311
 30
0.0
 10
-67.692767333984364
 20
82.352337646484372
 30
0.0
  0
SPLINE
  5
8C
100
AcDbEntity
  8
ORGANIC
 62
     7
100
AcDbSpline
210
0.0
220
0.0
230
1.0
 70
     8
 71
     3
 72
    11
 73
     7
 74
     0
 42
0.00000001
 43
0.00000001
 40
0.0
 40
0.0
 40
0.0
 40
0.0
 40
1.0
 40
1.0
 40
1.0
 40
2.0
 40
2.0
 40
2.0
 40
2.0
 10
-45.246247694227428
 20
-33.951502143012149
 30
0.0
 10
-45.250554063585064
 20
-33.944267442491316
 30
0.0
 10
-45.278459337022568
 20
-33.895347086588536
 30
0.0
 10
-45.288105604383674
 20
-33.878121609157986
 30
0.0
 10
-45.288105604383674
 20
-33.878121609157986
 30
0.0
 10
-45.246247694227428
 20
-33.951502143012149
 30
0.0
 10
-45.246247694227428
 20
-33.951502143012149
 30
0.0
  0
ENDBLK
  5
8E
100
AcDbEntity
  8
ORGANIC
100
AcDbBlockEnd
  0
BLOCK
  5
91
100
AcDbEntity
  8
ORGANIC
 62
     7
100
AcDbBlockBegin
  2
AI9-BLK16
 70
     0
 10
0.0
 20
0.0
 30
0.0
  3
AI9-BLK16
  1

  0
SPLINE
  5
92
100
AcDbEntity
  8
ORGANIC
 62
     7
100
AcDbSpline
210
0.0
220
0.0
230
1.0
 70
     8
 71
     3
 72
    47
 73
    43
 74
     0
 42
0.00000001
 43
0.00000001
 40
0.0
 40
0.0
 40
0.0
 40
0.0
 40
1.0
 40
1.0
 40
1.0
 40
2.0
 40
2.0
 40
2.0
 40
3.0
 40
3.0
 40
3.0
 40
4.0
 40
4.0
 40
4.0
 40
5.0
 40
5.0
 40
5.0
 40
6.0
 40
6.0
 40
6.0
 40
7.0
 40
7.0
 40
7.0
 40
8.0
 40
8.0
 40
8.0
 40
9.0
 40
9.0
 40
9.0
 40
10.0
 40
10.0
 40
10.0
 40
11.0
 40
11.0
 40
11.0
 40
12.0
 40
12.0
 40
12.0
 40
13.0
 40
13.0
 40
13.0
 40
14.0
 40
14.0
 40
14.0
 40
14.0
 10
-90.629007297092002
 20
311.7308430989583
 30
0.0
 10
-82.947994656032975
 20
296.66457926432287
 30
0.0
 10
-73.487934705946174
 20
279.16676703559023
 30
0.0
 10
-62.534081353081589
 20
258.9059882269965
 30
0.0
 10
-27.32865058051215
 20
193.78817138671874
 30
0.0
 10
20.886666531032983
 20
104.60653483072916
 30
0.0
 10
51.807604302300341
 20
16.706646050347221
 30
0.0
 10
68.621048312717008
 20
-31.089575195312499
 30
0.0
 10
78.678487820095484
 20
-74.1074490017361
 30
0.0
 10
81.700181070963538
 20
-111.15238850911457
 30
0.0
 10
85.189890543619782
 20
-153.93220621744791
 30
0.0
 10
79.447433132595478
 20
-190.26452772352428
 30
0.0
 10
64.632489013671872
 20
-219.13994004991318
 30
0.0
 10
52.652169460720479
 20
-242.49079725477429
 30
0.0
 10
34.384722900390621
 20
-261.64036051432288
 30
0.0
 10
10.337784152560763
 20
-276.05705159505203
 30
0.0
 10
-15.812040879991319
 20
-291.73464762369787
 30
0.0
 10
-49.570703803168399
 20
-302.30316704644093
 30
0.0
 10
-90.000277370876731
 20
-307.46874321831592
 30
0.0
 10
-90.000277370876731
 20
-307.46874321831592
 30
0.0
 10
-88.986385769314225
 20
-315.40417616102428
 30
0.0
 10
-88.986385769314225
 20
-315.40417616102428
 30
0.0
 10
-47.453692626953121
 20
-310.09769558376735
 30
0.0
 10
-12.652199300130206
 20
-299.16778564453125
 30
0.0
 10
14.451400417751735
 20
-282.91864827473955
 30
0.0
 10
39.799379475911458
 20
-267.72198757595481
 30
0.0
 10
59.077444797092006
 20
-247.49238688151038
 30
0.0
 10
71.750400797526041
 20
-222.79174126519095
 30
0.0
 10
87.256086561414918
 20
-192.56998562282985
 30
0.0
 10
93.286381700303806
 20
-154.79003499348957
 30
0.0
 10
89.673682318793396
 20
-110.5019544813368
 30
0.0
 10
86.596178521050334
 20
-72.773852539062489
 30
0.0
 10
76.395250786675334
 20
-29.081429036458331
 30
0.0
 10
59.354258219401039
 20
19.361436631944443
 30
0.0
 10
28.224030897352428
 20
107.85629340277777
 30
0.0
 10
-20.164746771918402
 20
197.35866834852428
 30
0.0
 10
-55.496612548828118
 20
262.7105794270833
 30
0.0
 10
-66.425833468967014
 20
282.92588297526038
 30
0.0
 10
-75.864706081814234
 20
300.38442111545135
 30
0.0
 10
-83.501793755425339
 20
315.36438530815968
 30
0.0
 10
-83.501793755425339
 20
315.36438530815968
 30
0.0
 10
-90.629007297092002
 20
311.7308430989583
 30
0.0
 10
-90.629007297092002
 20
311.7308430989583
 30
0.0
  0
ENDBLK
  5
93
100
AcDbEntity
  8
ORGANIC
100
AcDbBlockEnd
  0
BLOCK
  5
96
100
AcDbEntity
  8
ORGANIC
 62
     7
100
AcDbBlockBegin
  2
AI9-BLK17
 70
     0
 10
0.0
 20
0.0
 30
0.0
  3
AI9-BLK17
  1

  0
SPLINE
  5
97
100
AcDbEntity
  8
ORGANIC
 62
     7
100
AcDbSpline
210
0.0
220
0.0
230
1.0
 70
     8
 71
     3
 72
    41
 73
    37
 74
     0
 42
0.00000001
 43
0.00000001
 40
0.0
 40
0.0
 40
0.0
 40
0.0
 40
1.0
 40
1.0
 40
1.0
 40
2.0
 40
2.0
 40
2.0
 40
3.0
 40
3.0
 40
3.0
 40
4.0
 40
4.0
 40
4.0
 40
5.0
 40
5.0
 40
5.0
 40
6.0
 40
6.0
 40
6.0
 40
7.0
 40
7.0
 40
7.0
 40
8.0
 40
8.0
 40
8.0
 40
9.0
 40
9.0
 40
9.0
 40
10.0
 40
10.0
 40
10.0
 40
11.0
 40
11.0
 40
11.0
 40
12.0
 40
12.0
 40
12.0
 40
12.0
 10
-372.91057128906249
 20
108.92720133463541
 30
0.0
 10
-383.42431369357638
 20
104.30767279730902
 30
0.0
 10
-390.57443712022564
 20
95.133900282118049
 30
0.0
 10
-395.41272922092008
 20
80.056612141927076
 30
0.0
 10
-395.41272922092008
 20
80.056612141927076
 30
0.0
 10
-387.7952785915798
 20
77.612316894531247
 30
0.0
 10
-387.7952785915798
 20
77.612316894531247
 30
0.0
 10
-379.98283555772565
 20
101.95777316623263
 30
0.0
 10
-366.89405653211804
 20
108.07092285156249
 30
0.0
 10
-333.92983262803818
 20
102.77047119140624
 30
0.0
 10
-333.92983262803818
 20
102.77047119140624
 30
0.0
 10
-333.87367757161456
 20
102.76151394314235
 30
0.0
 10
-333.87367757161456
 20
102.76151394314235
 30
0.0
 10
-333.87367757161456
 20
102.76151394314235
 30
0.0
 10
-333.81752251519094
 20
102.75410698784721
 30
0.0
 10
-333.81752251519094
 20
102.75410698784721
 30
0.0
 10
-248.55072021484372
 20
91.514999728732633
 30
0.0
 10
-100.45708957248263
 20
58.655678982204854
 30
0.0
 10
34.694695366753471
 20
20.987866210937497
 30
0.0
 10
201.00530192057289
 20
-25.364171006944442
 30
0.0
 10
327.59809163411455
 20
-72.759210883246524
 30
0.0
 10
391.15252414279513
 20
-112.46669243706596
 30
0.0
 10
391.15252414279513
 20
-112.46669243706596
 30
0.0
 10
395.3913696289062
 20
-105.68192138671874
 30
0.0
 10
395.3913696289062
 20
-105.68192138671874
 30
0.0
 10
361.11198052300347
 20
-84.265140787760416
 30
0.0
 10
309.68704020182287
 20
-60.951146104600689
 30
0.0
 10
242.54419623480899
 20
-36.387615288628467
 30
0.0
 10
183.51661919487844
 20
-14.792895507812499
 30
0.0
 10
114.30878499348957
 20
7.1037868923611107
 30
0.0
 10
36.842367892795139
 20
28.694028049045137
 30
0.0
 10
-98.61224093967013
 20
66.446417914496521
 30
0.0
 10
-247.12238362630205
 20
99.391521538628467
 30
0.0
 10
-332.73007812499998
 20
110.67989366319443
 30
0.0
 10
-351.06280924479165
 20
113.6211439344618
 30
0.0
 10
-363.4577460394965
 20
113.08060845269097
 30
0.0
 10
-372.91057128906249
 20
108.92720133463541
 30
0.0
  0
ENDBLK
  5
98
100
AcDbEntity
  8
ORGANIC
100
AcDbBlockEnd
  0
BLOCK
  5
9B
100
AcDbEntity
  8
ORGANIC
 62
     7
100
AcDbBlockBegin
  2
AI9-BLK18
 70
     0
 10
0.0
 20
0.0
 30
0.0
  3
AI9-BLK18
  1

  0
SPLINE
  5
9C
100
AcDbEntity
  8
ORGANIC
 62
     7
100
AcDbSpline
210
0.0
220
0.0
230
1.0
 70
     8
 71
     3
 72
    47
 73
    43
 74
     0
 42
0.00000001
 43
0.00000001
 40
0.0
 40
0.0
 40
0.0
 40
0.0
 40
1.0
 40
1.0
 40
1.0
 40
2.0
 40
2.0
 40
2.0
 40
3.0
 40
3.0
 40
3.0
 40
4.0
 40
4.0
 40
4.0
 40
5.0
 40
5.0
 40
5.0
 40
6.0
 40
6.0
 40
6.0
 40
7.0
 40
7.0
 40
7.0
 40
8.0
 40
8.0
 40
8.0
 40
9.0
 40
9.0
 40
9.0
 40
10.0
 40
10.0
 40
10.0
 40
11.0
 40
11.0
 40
11.0
 40
12.0
 40
12.0
 40
12.0
 40
13.0
 40
13.0
 40
13.0
 40
14.0
 40
14.0
 40
14.0
 40
14.0
 10
-137.54707370334199
 20
321.87914699978296
 30
0.0
 10
-122.62722642686632
 20
303.46838446723086
 30
0.0
 10
-107.06951972113714
 20
284.83110690646697
 30
0.0
 10
-90.598518202039926
 20
265.09949476453988
 30
0.0
 10
-15.807217746310762
 20
175.50306871202255
 30
0.0
 10
68.963146294487842
 20
73.952161322699652
 30
0.0
 10
107.78024291992186
 20
-27.132280137803818
 30
0.0
 10
117.79410196940103
 20
-53.209585910373256
 30
0.0
 10
124.43969116210937
 20
-78.565488688151035
 30
0.0
 10
127.53252563476562
 20
-102.49615546332464
 30
0.0
 10
130.85721503363715
 20
-128.2203389485677
 30
0.0
 10
130.20540296766492
 20
-153.26549411349825
 30
0.0
 10
125.59534844292534
 20
-176.93536716037326
 30
0.0
 10
120.68264227973089
 20
-202.15794474283851
 30
0.0
 10
111.10458780924478
 20
-226.7107957628038
 30
0.0
 10
97.127146402994782
 20
-249.91110229492185
 30
0.0
 10
82.299110921223956
 20
-274.52389797634544
 30
0.0
 10
62.035403781467011
 20
-298.4273484971788
 30
0.0
 10
36.899125840928818
 20
-320.95758395724823
 30
0.0
 10
36.899125840928818
 20
-320.95758395724823
 30
0.0
 10
42.238679334852428
 20
-326.91484307183157
 30
0.0
 10
42.238679334852428
 20
-326.91484307183157
 30
0.0
 10
67.968030463324652
 20
-303.8530293782552
 30
0.0
 10
88.740578206380206
 20
-279.33428480360243
 30
0.0
 10
103.97978583441839
 20
-254.03936021592881
 30
0.0
 10
118.441263156467
 20
-230.03531290690103
 30
0.0
 10
128.35573120117186
 20
-204.60844116210936
 30
0.0
 10
133.44775458441839
 20
-178.46464504665798
 30
0.0
 10
138.22214016384547
 20
-153.95141262478296
 30
0.0
 10
138.90134073893228
 20
-128.04705064561631
 30
0.0
 10
135.46658053927951
 20
-101.47055053710936
 30
0.0
 10
132.29244181315104
 20
-76.910464816623261
 30
0.0
 10
125.49010077582464
 20
-50.934444851345482
 30
0.0
 10
115.24852091471354
 20
-24.264410400390624
 30
0.0
 10
75.955312093098954
 20
78.059576416015616
 30
0.0
 10
-9.266876220703125
 20
180.15188056098089
 30
0.0
 10
-84.456946478949646
 20
270.22614135742185
 30
0.0
 10
-100.90899997287326
 20
289.93484361436629
 30
0.0
 10
-116.44844767252603
 20
308.5504170735677
 30
0.0
 10
-131.33177693684894
 20
326.91587660047742
 30
0.0
 10
-131.33177693684894
 20
326.91587660047742
 30
0.0
 10
-137.54707370334199
 20
321.87914699978296
 30
0.0
 10
-137.54707370334199
 20
321.87914699978296
 30
0.0
  0
ENDBLK
  5
9D
100
AcDbEntity
  8
ORGANIC
100
AcDbBlockEnd
  0
BLOCK
  5
A0
100
AcDbEntity
  8
ORGANIC
 62
     7
100
AcDbBlockBegin
  2
AI9-BLK19
 70
     0
 10
0.0
 20
0.0
 30
0.0
  3
AI9-BLK19
  1

  0
SPLINE
  5
A1
100
AcDbEntity
  8
ORGANIC
 62
     7
100
AcDbSpline
210
0.0
220
0.0
230
1.0
 70
     8
 71
     3
 72
    23
 73
    19
 74
     0
 42
0.00000001
 43
0.00000001
 40
0.0
 40
0.0
 40
0.0
 40
0.0
 40
1.0
 40
1.0
 40
1.0
 40
2.0
 40
2.0
 40
2.0
 40
3.0
 40
3.0
 40
3.0
 40
4.0
 40
4.0
 40
4.0
 40
5.0
 40
5.0
 40
5.0
 40
6.0
 40
6.0
 40
6.0
 40
6.0
 10
-52.316531032986106
 20
58.451212565104164
 30
0.0
 10
-20.304703776041666
 20
37.532420518663194
 30
0.0
 10
5.6885416666666657
 20
13.708723958333332
 30
0.0
 10
22.852007378472219
 20
-10.444323730468749
 30
0.0
 10
36.892838541666663
 20
-30.20263536241319
 30
0.0
 10
44.73663194444444
 20
-50.093583170572913
 30
0.0
 10
44.372140842013884
 20
-65.016014268663184
 30
0.0
 10
44.372140842013884
 20
-65.016014268663184
 30
0.0
 10
52.369585503472216
 20
-65.211695692274304
 30
0.0
 10
52.369585503472216
 20
-65.211695692274304
 30
0.0
 10
52.781618923611106
 20
-48.353809950086799
 30
0.0
 10
44.614675564236109
 20
-27.258112250434024
 30
0.0
 10
29.372884114583332
 20
-5.8103257921006941
 30
0.0
 10
11.635465494791665
 20
19.150424533420136
 30
0.0
 10
-15.099164496527777
 20
43.687428114149299
 30
0.0
 10
-47.940570746527776
 20
65.148133680555546
 30
0.0
 10
-47.940570746527776
 20
65.148133680555546
 30
0.0
 10
-52.316531032986106
 20
58.451212565104164
 30
0.0
 10
-52.316531032986106
 20
58.451212565104164
 30
0.0
  0
ENDBLK
  5
A2
100
AcDbEntity
  8
ORGANIC
100
AcDbBlockEnd
  0
ENDSEC
  0
SECTION
  2
ENTITIES
  0
INSERT
  5
2A
100
AcDbEntity
  8
ORGANIC
 62
     7
100
AcDbBlockReference
  2
AI9-BLK1
 10
741.830688
 20
-399.547619
 30
0.0
  0
ENDSEC
  0
SECTION
  2
OBJECTS
  0
DICTIONARY
  5
19
100
AcDbDictionary
280
     0
281
     1
  3
ACAD_GROUP
350
1A
  3
ACAD_MLINESTYLE
350
1B
  3
ACAD_LAYOUT
350
1E
  3
ACAD_PLOTSETTINGS
350
22
  3
ACAD_PLOTSTYLENAME
350
1F
  3
ACAD_WIPEOUT_VARS
350
23
  0
DICTIONARY
  5
1A
102
{ACAD_REACTORS
330
19
102
}
100
AcDbDictionary
280
     0
281
     1
  0
DICTIONARY
  5
1B
102
{ACAD_REACTORS
330
19
102
}
100
AcDbDictionary
280
     0
281
     1
  3
Standard
350
1C
  0
MLINESTYLE
  5
1C
102
{ACAD_REACTORS
330
1B
102
}
100
AcDbMlineStyle
  2
Standard
 70
     0
  3

 62
     0
 51
90.0
 52
90.0
 71
     2
 49
0.5
 62
   256
  6
ByLayer
 49
-0.5
 62
   256
  6
ByLayer
  0
ACDBDICTIONARYWDFLT
  5
1F
102
{ACAD_REACTORS
330
19
102
}
100
AcDbDictionary
281
     1
  3
Normal
350
1D
100
AcDbDictionaryWithDefault
340
1D
  0
ACDBPLACEHOLDER
  5
1D
102
{ACAD_REACTORS
330
1F
102
}
  0
LAYOUT
  5
20
102
{ACAD_REACTORS
330
1E
102
}
100
AcDbPlotSettings
  1

  2

  4

  6

 40
0.0
 41
0.0
 42
0.0
 43
0.0
 44
0.0
 45
0.0
 46
0.0
 47
0.0
 48
0.0
 49
0.0
140
0.0
141
0.0
142
1.0
143
1.0
 70
  1024
 72
     0
 73
     0
 74
     0
  7

 75
     0
147
1.0
148
0.0
149
0.0
100
AcDbLayout
  1
Model
 70
     0
 71
     0
 10
0.0
 20
0.0
 11
0.0
 21
0.0
 12
0.0
 22
0.0
 32
0.0
 14
0.0
 24
0.0
 34
0.0
 15
0.0
 25
0.0
 35
0.0
146
0.0
 13
0.0
 23
0.0
 33
0.0
 16
0.0
 26
0.0
 36
0.0
 17
0.0
 27
0.0
 37
0.0
 76
     0
330
A
331
0
345
0
346
0
  0
LAYOUT
  5
21
102
{ACAD_REACTORS
330
1E
102
}
100
AcDbPlotSettings
  1

  2

  4

  6

 40
0.0
 41
0.0
 42
0.0
 43
0.0
 44
0.0
 45
0.0
 46
0.0
 47
0.0
 48
0.0
 49
0.0
140
0.0
141
0.0
142
1.0
143
1.0
 70
     0
 72
     0
 73
     0
 74
     0
  7

 75
     0
147
1.0
148
0.0
149
0.0
100
AcDbLayout
  1
Layout1
 70
     0
 71
     0
 10
0.0
 20
0.0
 11
0.0
 21
0.0
 12
0.0
 22
0.0
 32
0.0
 14
0.0
 24
0.0
 34
0.0
 15
0.0
 25
0.0
 35
0.0
146
0.0
 13
0.0
 23
0.0
 33
0.0
 16
0.0
 26
0.0
 36
0.0
 17
0.0
 27
0.0
 37
0.0
 76
     0
330
B
331
0
345
0
346
0
  0
DICTIONARY
  5
1E
102
{ACAD_REACTORS
330
19
102
}
100
AcDbDictionary
280
     0
281
     1
  3
Layout1
350
21
  3
Model
350
20
  0
DICTIONARY
  5
22
102
{ACAD_REACTORS
330
19
102
}
100
AcDbDictionary
280
     0
281
     1
  0
WIPEOUTVARIABLES
  5
23
100
AcDbWipeoutVariables
 70
     1
  0
ENDSEC
  0
EOF
