  0
SECTION
  2
HEADER
  9
$ACADVER
  1
AC1015
  9
$ACADMAINTVER
 70
     6
  9
$DWGCODEPAGE
  3
ANSI_932
  9
$INSBASE
 10
0.0
 20
0.0
 30
0.0
  9
$EXTMIN
 10
-1.211812
 20
-800.5141
 30
1.000000E+20
  9
$EXTMAX
 10
1250.182949
 20
1.904793
 30
-1.000000E+20
  9
$LIMMIN
 10
-1.211812
 20
-800.5141
  9
$LIMMAX
 10
1250.182949
 20
1.904793
  9
$ORTHOMODE
 70
     0
  9
$REGENMODE
 70
     1
  9
$FILLMODE
 70
     1
  9
$QTEXTMODE
 70
     0
  9
$MIRRTEXT
 70
     1
  9
$LTSCALE
 40
1.0
  9
$ATTMODE
 70
     1
  9
$TEXTSIZE
 40
0.2
  9
$TRACEWID
 40
0.05
  9
$TEXTSTYLE
  7
Standard
  9
$CLAYER
  8
0
  9
$CELTYPE
  6
Continuous
  9
$CECOLOR
 62
   256
  9
$CELTSCALE
 40
1.0
  9
$DISPSILH
 70
     0
  9
$DIMSCALE
 40
1.0
  9
$DIMASZ
 40
0.18
  9
$DIMEXO
 40
0.0625
  9
$DIMDLI
 40
0.38
  9
$DIMRND
 40
0.0
  9
$DIMDLE
 40
0.0
  9
$DIMEXE
 40
0.18
  9
$DIMTP
 40
0.0
  9
$DIMTM
 40
0.0
  9
$DIMTXT
 40
0.18
  9
$DIMCEN
 40
0.09
  9
$DIMTSZ
 40
0.0
  9
$DIMTOL
 70
     0
  9
$DIMLIM
 70
     0
  9
$DIMTIH
 70
     1
  9
$DIMTOH
 70
     1
  9
$DIMSE1
 70
     0
  9
$DIMSE2
 70
     0
  9
$DIMTAD
 70
     0
  9
$DIMZIN
 70
     0
  9
$DIMBLK
  1

  9
$DIMASO
 70
     1
  9
$DIMSHO
 70
     1
  9
$DIMPOST
  1

  9
$DIMAPOST
  1

  9
$DIMALT
 70
     0
  9
$DIMALTD
 70
     2
  9
$DIMALTF
 40
25.4
  9
$DIMLFAC
 40
1.0
  9
$DIMTOFL
 70
     0
  9
$DIMTVP
 40
0.0
  9
$DIMTIX
 70
     0
  9
$DIMSOXD
 70
     0
  9
$DIMSAH
 70
     0
  9
$DIMBLK1
  1

  9
$DIMBLK2
  1

  9
$DIMSTYLE
  2
Standard
  9
$DIMCLRD
 70
     0
  9
$DIMCLRE
 70
     0
  9
$DIMCLRT
 70
     0
  9
$DIMTFAC
 40
1.0
  9
$DIMGAP
 40
0.09
  9
$DIMJUST
 70
     0
  9
$DIMSD1
 70
     0
  9
$DIMSD2
 70
     0
  9
$DIMTOLJ
 70
     1
  9
$DIMTZIN
 70
     0
  9
$DIMALTZ
 70
     0
  9
$DIMALTTZ
 70
     0
  9
$DIMUPT
 70
     0
  9
$DIMDEC
 70
     4
  9
$DIMTDEC
 70
     4
  9
$DIMALTU
 70
     2
  9
$DIMALTTD
 70
     2
  9
$DIMTXSTY
  7
Standard
  9
$DIMAUNIT
 70
     0
  9
$DIMADEC
 70
     0
  9
$DIMALTRND
 40
0.0
  9
$DIMAZIN
 70
     0
  9
$DIMDSEP
 70
     0
  9
$DIMATFIT
 70
     3
  9
$DIMFRAC
 70
     0
  9
$DIMLDRBLK
  1

  9
$DIMLUNIT
 70
     2
  9
$DIMLWD
 70
     0
  9
$DIMLWE
 70
     0
  9
$DIMTMOVE
 70
     0
  9
$LUNITS
 70
     2
  9
$LUPREC
 70
     4
  9
$SKETCHINC
 40
0.1
  9
$FILLETRAD
 40
0.0
  9
$AUNITS
 70
     0
  9
$AUPREC
 70
     0
  9
$MENU
  1
acad
  9
$ELEVATION
 40
0.0
  9
$PELEVATION
 40
0.0
  9
$THICKNESS
 40
0.0
  9
$LIMCHECK
 70
     0
  9
$CHAMFERA
 40
0.0
  9
$CHAMFERB
 40
0.0
  9
$CHAMFERC
 40
0.0
  9
$CHAMFERD
 40
0.0
  9
$SKPOLY
 70
     0
  9
$TDCREATE
 40
0.000000000
  9
$TDUCREATE
 40
0.000000000
  9
$TDUPDATE
 40
0.000000000
  9
$TDUUPDATE
 40
0.000000000
  9
$TDINDWG
 40
0.0000000000
  9
$TDUSRTIMER
 40
0.0000000000
  9
$USRTIMER
 70
     1
  9
$ANGBASE
 50
0.0
  9
$ANGDIR
 70
     0
  9
$PDMODE
 70
     0
  9
$PDSIZE
 40
0.0
  9
$PLINEWID
 40
0.0
  9
$SPLFRAME
 70
     0
  9
$SPLINETYPE
 70
     6
  9
$SPLINESEGS
 70
     8
  9
$HANDSEED
  5
C4
  9
$SURFTAB1
 70
     6
  9
$SURFTAB2
 70
     6
  9
$SURFTYPE
 70
     6
  9
$SURFU
 70
     6
  9
$SURFV
 70
     6
  9
$UCSBASE
  2

  9
$UCSNAME
  2

  9
$UCSORG
 10
0.0
 20
0.0
 30
0.0
  9
$UCSXDIR
 10
1.0
 20
0.0
 30
0.0
  9
$UCSYDIR
 10
0.0
 20
1.0
 30
0.0
  9
$UCSORTHOREF
  2

  9
$UCSORTHOVIEW
 70
     0
  9
$UCSORGTOP
 10
0.0
 20
0.0
 30
0.0
  9
$UCSORGBOTTOM
 10
0.0
 20
0.0
 30
0.0
  9
$UCSORGLEFT
 10
0.0
 20
0.0
 30
0.0
  9
$UCSORGRIGHT
 10
0.0
 20
0.0
 30
0.0
  9
$UCSORGFRONT
 10
0.0
 20
0.0
 30
0.0
  9
$UCSORGBACK
 10
0.0
 20
0.0
 30
0.0
  9
$PUCSBASE
  2

  9
$PUCSNAME
  2

  9
$PUCSORG
 10
0.0
 20
0.0
 30
0.0
  9
$PUCSXDIR
 10
1.0
 20
0.0
 30
0.0
  9
$PUCSYDIR
 10
0.0
 20
1.0
 30
0.0
  9
$PUCSORTHOREF
  2

  9
$PUCSORTHOVIEW
 70
     0
  9
$PUCSORGTOP
 10
0.0
 20
0.0
 30
0.0
  9
$PUCSORGBOTTOM
 10
0.0
 20
0.0
 30
0.0
  9
$PUCSORGLEFT
 10
0.0
 20
0.0
 30
0.0
  9
$PUCSORGRIGHT
 10
0.0
 20
0.0
 30
0.0
  9
$PUCSORGFRONT
 10
0.0
 20
0.0
 30
0.0
  9
$PUCSORGBACK
 10
0.0
 20
0.0
 30
0.0
  9
$USERI1
 70
     0
  9
$USERI2
 70
     0
  9
$USERI3
 70
     0
  9
$USERI4
 70
     0
  9
$USERI5
 70
     0
  9
$USERR1
 40
0.0
  9
$USERR2
 40
0.0
  9
$USERR3
 40
0.0
  9
$USERR4
 40
0.0
  9
$USERR5
 40
0.0
  9
$WORLDVIEW
 70
     1
  9
$SHADEDGE
 70
     3
  9
$SHADEDIF
 70
    70
  9
$TILEMODE
 70
     1
  9
$MAXACTVP
 70
    16
  9
$PINSBASE
 10
0.0
 20
0.0
 30
0.0
  9
$PLIMCHECK
 70
     0
  9
$PEXTMIN
 10
1.000000E+20
 20
1.000000E+20
 30
1.000000E+20
  9
$PEXTMAX
 10
-1.000000E+20
 20
-1.000000E+20
 30
-1.000000E+20
  9
$PLIMMIN
 10
0.0
 20
0.0
  9
$PLIMMAX
 10
12.0
 20
9.0
  9
$UNITMODE
 70
     0
  9
$VISRETAIN
 70
     0
  9
$PLINEGEN
 70
     1
  9
$PSLTSCALE
 70
     0
  9
$TREEDEPTH
 70
  3020
  9
$CMLSTYLE
  2
Standard
  9
$CMLJUST
 70
     0
  9
$CMLSCALE
 40
1.0
  9
$PROXYGRAPHICS
 70
     0
  9
$MEASUREMENT
 70
     1
  9
$CELWEIGHT
370
     0
  9
$ENDCAPS
280
     0
  9
$JOINSTYLE
280
     0
  9
$LWDISPLAY
290
     0
  9
$INSUNITS
 70
     0
  9
$HYPERLINKBASE
  1

  9
$STYLESHEET
  1

  9
$XEDIT
290
     1
  9
$CEPSNTYPE
380
     0
  9
$PSTYLEMODE
290
     1
  9
$FINGERPRINTGUID
  2

  9
$VERSIONGUID
  2

  9
$EXTNAMES
290
     1
  9
$PSVPSCALE
 40
0.0
  0
ENDSEC
  0
SECTION
  2
CLASSES
  0
CLASS
  1
LWPOLYLINE
  2
AcDbPolyline
  3
AutoCAD 2000
 90
    32768
280
     0
281
     1
  0
CLASS
  1
IMAGE
  2
AcDbRasterImage
  3
ISM
 90
    32895
280
     0
281
     1
  0
CLASS
  1
OLE2FRAME
  2
AcDbOle2Frame
  3
AutoCAD 2000
 90
    32768
280
     0
281
     1
  0
CLASS
  1
HATCH
  2
AcDbHatch
  3
AutoCAD 2000
 90
        0
280
     0
281
     1
  0
CLASS
  1
DICTIONARYVAR
  2
AcDbDictionaryVar
  3
AutoCAD 2000
 90
    32768
280
     0
281
     0
  0
CLASS
  1
RASTERVARIABLES
  2
AcDbRasterVariables
  3
ISM
 90
    32768
280
     0
281
     0
  0
CLASS
  1
IMAGEDEF
  2
AcDbRasterImageDef
  3
ISM
 90
    32768
280
     0
281
     0
  0
CLASS
  1
IMAGEDEF_REACTOR
  2
AcDbRasterImageDefReactor
  3
ISM
 90
    32769
280
     0
281
     0
  0
CLASS
  1
IDBUFFER
  2
AcDbIdBuffer
  3
AutoCAD 2000
 90
    32768
280
     0
281
     0
  0
CLASS
  1
SPATIAL_FILTER
  2
AcDbSpatialFilter
  3
AutoCAD 2000
 90
    32768
280
     0
281
     0
  0
CLASS
  1
XRECORD
  2
AcDbXrecord
  3
AutoCAD 2000
 90
    32768
280
     0
281
     0
  0
CLASS
  1
SORTENTSTABLE
  2
AcDbSortentsTable
  3
AutoCAD 2000
 90
    32768
280
     0
281
     0
  0
CLASS
  1
LAYER_INDEX
  2
AcDbLayerIndex
  3
AutoCAD 2000
 90
    32768
280
     0
281
     0
  0
CLASS
  1
SPATIAL_INDEX
  2
AcDbSpatialIndex
  3
AutoCAD 2000
 90
    32768
280
     0
281
     0
  0
CLASS
  1
OBJECT_PTR
  2
CAseDLPNTableRecord
  3
"ASE-LPNTableRecord"
 90
    32769
280
     0
281
     0
  0
CLASS
  1
LAYOUT
  2
AcDbLayout
  3
AutoCAD 2000
 90
        0
280
     0
281
     0
  0
CLASS
  1
PLOTSETTINGS
  2
AcDbPlotSettings
  3
AutoCAD 2000
 90
    32768
280
     0
281
     0
  0
CLASS
  1
ACDBDICTIONARYWDFLT
  2
AcDbDictionaryWithDefault
  3
AutoCAD 2000
 90
        0
280
     0
281
     0
  0
CLASS
  1
ACDBPLACEHOLDER
  2
AcDbPlaceHolder
  3
AutoCAD 2000
 90
        0
280
     0
281
     0
  0
CLASS
  1
VBA_PROJECT
  2
AcDbVbaProject
  3
acadvba
 90
    32768
280
     0
281
     0
  0
CLASS
  1
WIPEOUT
  2
AcDbWipeout
  3
WipeOut|AutoCAD Express Tool|expresstools@autodesk.com
 90
    32895
280
     0
281
     1
  0
CLASS
  1
WIPEOUTVARIABLES
  2
AcDbWipeoutVariables
  3
WipeOut|AutoCAD Express Tool|expresstools@autodesk.com
 90
        0
280
     0
281
     0
  0
CLASS
  1
RTEXT
  2
RText
  3
RText|AutoCAD Express Tool|expresstools@autodesk.com
 90
    32768
280
     0
281
     1
  0
CLASS
  1
ARCALIGNEDTEXT
  2
AcDbArcAlignedText
  3
ATEXT|AutoCAD Express Tool|expresstools@autodesk.com
 90
    32768
280
     0
281
     1
  0
ENDSEC
  0
SECTION
  2
TABLES
  0
TABLE
  2
VPORT
  5
7
100
AcDbSymbolTable
 70
     1
  0
VPORT
  5
15
100
AcDbSymbolTableRecord
100
AcDbViewportTableRecord
  2
*ACTIVE
 70
     0
 10
0.0
 20
0.0
 11
1.0
 21
1.0
 12
6.591288
 22
4.579184
 13
0.0
 23
0.0
 14
1.0
 24
1.0
 15
0.0
 25
0.0
 16
0.0
 26
0.0
 36
1.0
 17
0.0
 27
0.0
 37
0.0
 40
9.158369
 41
0.688564
 42
50.0
 43
0.0
 44
0.0
 50
0.0
 51
0.0
 71
     0
 72
   100
 73
     1
 74
     1
 75
     0
 76
     0
 77
     0
 78
     0
281
     0
 65
     0
110
0.0
120
0.0
130
0.0
111
1.0
121
0.0
131
0.0
112
0.0
122
1.0
132
0.0
345
0
346
0
 79
     0
146
0.0
  0
ENDTAB
  0
TABLE
  2
LTYPE
  5
4
100
AcDbSymbolTable
 70
     6
  0
LTYPE
  5
11
100
AcDbSymbolTableRecord
100
AcDbLinetypeTableRecord
  2
ByBlock
 70
    64
  3

 72
    65
 73
     0
 40
0.0
  0
LTYPE
  5
12
100
AcDbSymbolTableRecord
100
AcDbLinetypeTableRecord
  2
ByLayer
 70
    64
  3

 72
    65
 73
     0
 40
0.0
  0
LTYPE
  5
13
100
AcDbSymbolTableRecord
100
AcDbLinetypeTableRecord
  2
Continuous
 70
    64
  3
Solid line
 72
    65
 73
     0
 40
0.0
  0
LTYPE
  5
2A
100
AcDbSymbolTableRecord
100
AcDbLinetypeTableRecord
  2
AI9-LType1
 70
    64
  3
Illustrator Dash Style No.1
 72
    65
 73
     4
 40
9.999944
 49
4.99999
 74
     0
 49
-0.999984
 74
     0
 49
2.999987
 74
     0
 49
-0.999984
 74
     0
  0
LTYPE
  5
38
100
AcDbSymbolTableRecord
100
AcDbLinetypeTableRecord
  2
AI9-LType2
 70
    64
  3
Illustrator Dash Style No.2
 72
    65
 73
     4
 40
8.999961
 49
4.99999
 74
     0
 49
-0.999984
 74
     0
 49
2.000003
 74
     0
 49
-0.999984
 74
     0
  0
LTYPE
  5
BB
100
AcDbSymbolTableRecord
100
AcDbLinetypeTableRecord
  2
AI9-LType3
 70
    64
  3
Illustrator Dash Style No.3
 72
    65
 73
     4
 40
9.99998
 49
4.99999
 74
     0
 49
-0.999984
 74
     0
 49
2.000003
 74
     0
 49
-2.000003
 74
     0
  0
ENDTAB
  0
TABLE
  2
LAYER
  5
2
100
AcDbSymbolTable
 70
     2
  0
LAYER
  5
14
100
AcDbSymbolTableRecord
100
AcDbLayerTableRecord
  2
0
 70
     0
 62
     7
  6
Continuous
290
     1
370
    -3
390
1D
  0
LAYER
  5
28
100
AcDbSymbolTableRecord
100
AcDbLayerTableRecord
  2
QUARTZ_DESIGN_1
 70
     4
 62
   160
  6
Continuous
290
     1
370
    -3
390
1D
  0
ENDTAB
  0
TABLE
  2
STYLE
  5
3
100
AcDbSymbolTable
 70
     5
  0
STYLE
  5
17
100
AcDbSymbolTableRecord
100
AcDbTextStyleTableRecord
  2
Standard
 70
     0
 40
0.0
 41
1.0
 50
0.0
 71
     0
 42
0.0
  3
txt
  4

  0
STYLE
  5
24
100
AcDbSymbolTableRecord
100
AcDbTextStyleTableRecord
  2
STD
 70
     0
 40
0.0
 41
1.0
 50
0.0
 71
     0
 42
0.0
  3
txt
  4

  0
STYLE
  5
25
100
AcDbSymbolTableRecord
100
AcDbTextStyleTableRecord
  2
TATESTD
 70
     4
 40
0.0
 41
1.0
 50
0.0
 71
     0
 42
0.0
  3
txt
  4

  0
STYLE
  5
26
100
AcDbSymbolTableRecord
100
AcDbTextStyleTableRecord
  2
KANJISTD
 70
     0
 40
0.0
 41
1.0
 50
0.0
 71
     0
 42
0.0
  3
txt
  4
extfont
  0
STYLE
  5
27
100
AcDbSymbolTableRecord
100
AcDbTextStyleTableRecord
  2
KANJITATE
 70
     4
 40
0.0
 41
1.0
 50
0.0
 71
     0
 42
0.0
  3
txt
  4
extfont
  0
ENDTAB
  0
TABLE
  2
VIEW
  5
5
100
AcDbSymbolTable
 70
     0
  0
ENDTAB
  0
TABLE
  2
UCS
  5
6
100
AcDbSymbolTable
 70
     0
  0
ENDTAB
  0
TABLE
  2
APPID
  5
8
100
AcDbSymbolTable
 70
     1
  0
APPID
  5
16
100
AcDbSymbolTableRecord
100
AcDbRegAppTableRecord
  2
ACAD
 70
     0
  0
ENDTAB
  0
TABLE
  2
DIMSTYLE
  5
9
100
AcDbSymbolTable
 70
     1
100
AcDbDimStyleTable
 71
     0
  0
DIMSTYLE
105
18
100
AcDbSymbolTableRecord
100
AcDbDimStyleTableRecord
  2
Standard
 70
     0
  3

  4

 40
1.0
 41
0.18
 42
0.0625
 43
0.38
 44
0.18
 45
0.0
 46
0.0
 47
0.0
 48
0.0
 71
     0
 72
     0
 73
     1
 74
     1
 75
     0
 76
     0
 77
     0
 78
     0
 79
     0
140
0.18
141
0.09
142
0.0
143
25.4
144
1.0
145
0.0
146
1.0
147
0.09
148
0.0
170
     0
171
     2
172
     0
173
     0
174
     0
175
     0
176
     0
177
     0
178
     0
179
     0
271
     4
272
     4
273
     2
274
     2
275
     0
276
     0
277
     2
278
    46
279
     0
280
     0
281
     0
282
     0
283
     1
284
     0
285
     0
286
     0
288
     0
340
17
341
0
342
0
343
0
344
0
371
    -2
372
    -2
  0
ENDTAB
  0
TABLE
  2
BLOCK_RECORD
  5
1
100
AcDbSymbolTable
 70
    17
  0
BLOCK_RECORD
  5
A
100
AcDbSymbolTableRecord
100
AcDbBlockTableRecord
  2
*MODEL_SPACE
340
20
  0
BLOCK_RECORD
  5
B
100
AcDbSymbolTableRecord
100
AcDbBlockTableRecord
  2
*PAPER_SPACE
340
21
  0
BLOCK_RECORD
  5
2C
100
AcDbSymbolTableRecord
100
AcDbBlockTableRecord
  2
AI9-BLK1
340
0
102
{BLKREFS
331
2D
102
}
  0
BLOCK_RECORD
  5
2F
100
AcDbSymbolTableRecord
100
AcDbBlockTableRecord
  2
AI9-BLK2
340
0
102
{BLKREFS
331
30
102
}
  0
BLOCK_RECORD
  5
35
100
AcDbSymbolTableRecord
100
AcDbBlockTableRecord
  2
AI9-BLK3
340
0
102
{BLKREFS
331
36
102
}
  0
BLOCK_RECORD
  5
3D
100
AcDbSymbolTableRecord
100
AcDbBlockTableRecord
  2
AI9-BLK4
340
0
102
{BLKREFS
331
3E
102
}
  0
BLOCK_RECORD
  5
44
100
AcDbSymbolTableRecord
100
AcDbBlockTableRecord
  2
AI9-BLK5
340
0
102
{BLKREFS
331
45
102
}
  0
BLOCK_RECORD
  5
47
100
AcDbSymbolTableRecord
100
AcDbBlockTableRecord
  2
AI9-BLK6
340
0
102
{BLKREFS
331
48
102
}
  0
BLOCK_RECORD
  5
4D
100
AcDbSymbolTableRecord
100
AcDbBlockTableRecord
  2
AI9-BLK7
340
0
102
{BLKREFS
331
4E
102
}
  0
BLOCK_RECORD
  5
54
100
AcDbSymbolTableRecord
100
AcDbBlockTableRecord
  2
AI9-BLK8
340
0
102
{BLKREFS
331
55
102
}
  0
BLOCK_RECORD
  5
5B
100
AcDbSymbolTableRecord
100
AcDbBlockTableRecord
  2
AI9-BLK9
340
0
102
{BLKREFS
331
5C
102
}
  0
BLOCK_RECORD
  5
6B
100
AcDbSymbolTableRecord
100
AcDbBlockTableRecord
  2
AI9-BLK10
340
0
102
{BLKREFS
331
6C
102
}
  0
BLOCK_RECORD
  5
75
100
AcDbSymbolTableRecord
100
AcDbBlockTableRecord
  2
AI9-BLK11
340
0
102
{BLKREFS
331
76
102
}
  0
BLOCK_RECORD
  5
7F
100
AcDbSymbolTableRecord
100
AcDbBlockTableRecord
  2
AI9-BLK12
340
0
102
{BLKREFS
331
80
102
}
  0
BLOCK_RECORD
  5
89
100
AcDbSymbolTableRecord
100
AcDbBlockTableRecord
  2
AI9-BLK13
340
0
102
{BLKREFS
331
8A
102
}
  0
BLOCK_RECORD
  5
93
100
AcDbSymbolTableRecord
100
AcDbBlockTableRecord
  2
AI9-BLK14
340
0
102
{BLKREFS
331
94
102
}
  0
BLOCK_RECORD
  5
9D
100
AcDbSymbolTableRecord
100
AcDbBlockTableRecord
  2
AI9-BLK15
340
0
102
{BLKREFS
331
9E
102
}
  0
BLOCK_RECORD
  5
A7
100
AcDbSymbolTableRecord
100
AcDbBlockTableRecord
  2
AI9-BLK16
340
0
102
{BLKREFS
331
A8
102
}
  0
BLOCK_RECORD
  5
B1
100
AcDbSymbolTableRecord
100
AcDbBlockTableRecord
  2
AI9-BLK17
340
0
102
{BLKREFS
331
B2
102
}
  0
ENDTAB
  0
ENDSEC
  0
SECTION
  2
BLOCKS
  0
BLOCK
  5
D
100
AcDbEntity
  8
0
100
AcDbBlockBegin
  2
*MODEL_SPACE
 70
     0
 10
0.0
 20
0.0
 30
0.0
  3
*MODEL_SPACE
  1

  0
ENDBLK
  5
E
100
AcDbEntity
  8
0
100
AcDbBlockEnd
  0
BLOCK
  5
F
100
AcDbEntity
 67
     1
  8
0
100
AcDbBlockBegin
  2
*PAPER_SPACE
 70
     0
 10
0.0
 20
0.0
 30
0.0
  3
*PAPER_SPACE
  1

  0
ENDBLK
  5
10
100
AcDbEntity
 67
     1
  8
0
100
AcDbBlockEnd
  0
BLOCK
  5
2E
100
AcDbEntity
  8
QUARTZ_DESIGN_1
 62
     7
100
AcDbBlockBegin
  2
AI9-BLK1
 70
     0
 10
0.0
 20
0.0
 30
0.0
  3
AI9-BLK1
  1

  0
INSERT
  5
30
100
AcDbEntity
  8
QUARTZ_DESIGN_1
 62
     7
100
AcDbBlockReference
  2
AI9-BLK2
 10
0.0
 20
0.0
 30
0.0
  0
ENDBLK
  5
34
100
AcDbEntity
  8
QUARTZ_DESIGN_1
100
AcDbBlockEnd
  0
BLOCK
  5
31
100
AcDbEntity
  8
QUARTZ_DESIGN_1
 62
     7
100
AcDbBlockBegin
  2
AI9-BLK2
 70
     0
 10
0.0
 20
0.0
 30
0.0
  3
AI9-BLK2
  1

  0
HATCH
  5
32
100
AcDbEntity
  8
QUARTZ_DESIGN_1
 62
     7
100
AcDbHatch
 10
0.0
 20
0.0
 30
0.0
210
0.0
220
0.0
230
1.0
  2
SOLID
 70
     1
 71
     0
 91
        1
 92
        1
 93
        1
 72
     4
 94
        3
 73
     0
 74
     0
 95
       14
 96
       10
 40
0.0
 40
0.0
 40
0.0
 40
0.0
 40
1.0
 40
1.0
 40
1.0
 40
2.0
 40
2.0
 40
2.0
 40
3.0
 40
3.0
 40
3.0
 40
3.0
 10
-0.0165364583333333
 20
-0.1756998697916667
 10
0.2091172960069444
 20
-0.1756998697916667
 10
0.2439127604166667
 20
0.1756998697916667
 10
0.0165364583333333
 20
0.1756998697916667
 10
-0.2091172960069444
 20
0.1756998697916667
 10
-0.2439127604166667
 20
-0.1756998697916667
 10
-0.0165364583333333
 20
-0.1756998697916667
 10
-0.0165364583333333
 20
-0.1756998697916667
 10
-0.0165364583333333
 20
-0.1756998697916667
 10
-0.0165364583333333
 20
-0.1756998697916667
 97
        0
 75
     2
 76
     1
 98
        1
 10
0.0
 20
0.0
  0
ENDBLK
  5
33
100
AcDbEntity
  8
QUARTZ_DESIGN_1
100
AcDbBlockEnd
  0
BLOCK
  5
37
100
AcDbEntity
  8
QUARTZ_DESIGN_1
 62
     7
100
AcDbBlockBegin
  2
AI9-BLK3
 70
     0
 10
0.0
 20
0.0
 30
0.0
  3
AI9-BLK3
  1

  0
LINE
  5
3B
100
AcDbEntity
  8
QUARTZ_DESIGN_1
  6
AI9-LType2
 62
     7
100
AcDbLine
 10
0.012058
 20
14.945685
 30
0.0
 11
0.012058
 21
-15.155147
 31
0.0
  0
LINE
  5
3A
100
AcDbEntity
  8
QUARTZ_DESIGN_1
  6
AI9-LType2
 62
     7
100
AcDbLine
 10
15.106399
 20
0.081132
 30
0.0
 11
-15.113978
 21
0.081132
 31
0.0
  0
CIRCLE
  5
39
100
AcDbEntity
  8
QUARTZ_DESIGN_1
  6
AI9-LType2
 62
     7
100
AcDbCircle
 10
0.0
 20
0.000172
 30
0.0
 40
15.016138
  0
ENDBLK
  5
3C
100
AcDbEntity
  8
QUARTZ_DESIGN_1
100
AcDbBlockEnd
  0
BLOCK
  5
3F
100
AcDbEntity
  8
QUARTZ_DESIGN_1
  6
AI9-LType2
 62
     7
100
AcDbBlockBegin
  2
AI9-BLK4
 70
     0
 10
0.0
 20
0.0
 30
0.0
  3
AI9-BLK4
  1

  0
LINE
  5
42
100
AcDbEntity
  8
QUARTZ_DESIGN_1
  6
AI9-LType2
 62
     7
100
AcDbLine
 10
0.012488
 20
14.945599
 30
0.0
 11
0.012488
 21
-15.155233
 31
0.0
  0
LINE
  5
41
100
AcDbEntity
  8
QUARTZ_DESIGN_1
  6
AI9-LType2
 62
     7
100
AcDbLine
 10
15.106485
 20
0.081046
 30
0.0
 11
-15.11372
 21
0.081046
 31
0.0
  0
CIRCLE
  5
40
100
AcDbEntity
  8
QUARTZ_DESIGN_1
  6
AI9-LType2
 62
     7
100
AcDbCircle
 10
0.0
 20
0.000086
 30
0.0
 40
15.016224
  0
ENDBLK
  5
43
100
AcDbEntity
  8
QUARTZ_DESIGN_1
100
AcDbBlockEnd
  0
BLOCK
  5
46
100
AcDbEntity
  8
QUARTZ_DESIGN_1
  6
AI9-LType2
 62
     7
100
AcDbBlockBegin
  2
AI9-BLK5
 70
     0
 10
0.0
 20
0.0
 30
0.0
  3
AI9-BLK5
  1

  0
INSERT
  5
48
100
AcDbEntity
  8
QUARTZ_DESIGN_1
  6
AI9-LType2
 62
     7
100
AcDbBlockReference
  2
AI9-BLK6
 10
0.0
 20
0.0
 30
0.0
  0
ENDBLK
  5
4C
100
AcDbEntity
  8
QUARTZ_DESIGN_1
100
AcDbBlockEnd
  0
BLOCK
  5
49
100
AcDbEntity
  8
QUARTZ_DESIGN_1
  6
AI9-LType2
 62
     7
100
AcDbBlockBegin
  2
AI9-BLK6
 70
     0
 10
0.0
 20
0.0
 30
0.0
  3
AI9-BLK6
  1

  0
HATCH
  5
4A
100
AcDbEntity
  8
QUARTZ_DESIGN_1
 62
     7
100
AcDbHatch
 10
0.0
 20
0.0
 30
0.0
210
0.0
220
0.0
230
1.0
  2
SOLID
 70
     1
 71
     0
 91
        1
 92
        1
 93
        1
 72
     4
 94
        3
 73
     0
 74
     0
 95
       14
 96
       10
 40
0.0
 40
0.0
 40
0.0
 40
0.0
 40
1.0
 40
1.0
 40
1.0
 40
2.0
 40
2.0
 40
2.0
 40
3.0
 40
3.0
 40
3.0
 40
3.0
 10
-0.0167087131076389
 20
-0.1756998697916667
 10
0.20928955078125
 20
-0.1756998697916667
 10
0.2439127604166667
 20
0.1756998697916667
 10
0.0167087131076389
 20
0.1756998697916667
 10
-0.20928955078125
 20
0.1756998697916667
 10
-0.2439127604166667
 20
-0.1756998697916667
 10
-0.0167087131076389
 20
-0.1756998697916667
 10
-0.0167087131076389
 20
-0.1756998697916667
 10
-0.0167087131076389
 20
-0.1756998697916667
 10
-0.0167087131076389
 20
-0.1756998697916667
 97
        0
 75
     2
 76
     1
 98
        1
 10
0.0
 20
0.0
  0
ENDBLK
  5
4B
100
AcDbEntity
  8
QUARTZ_DESIGN_1
100
AcDbBlockEnd
  0
BLOCK
  5
4F
100
AcDbEntity
  8
QUARTZ_DESIGN_1
 62
     7
100
AcDbBlockBegin
  2
AI9-BLK7
 70
     0
 10
0.0
 20
0.0
 30
0.0
  3
AI9-BLK7
  1

  0
LINE
  5
52
100
AcDbEntity
  8
QUARTZ_DESIGN_1
  6
AI9-LType2
 62
     7
100
AcDbLine
 10
0.012402
 20
14.945599
 30
0.0
 11
0.012402
 21
-15.155406
 31
0.0
  0
LINE
  5
51
100
AcDbEntity
  8
QUARTZ_DESIGN_1
  6
AI9-LType2
 62
     7
100
AcDbLine
 10
15.106399
 20
0.081046
 30
0.0
 11
-15.113978
 21
0.081046
 31
0.0
  0
CIRCLE
  5
50
100
AcDbEntity
  8
QUARTZ_DESIGN_1
  6
AI9-LType2
 62
     7
100
AcDbCircle
 10
0.0
 20
0.000086
 30
0.0
 40
15.016138
  0
ENDBLK
  5
53
100
AcDbEntity
  8
QUARTZ_DESIGN_1
100
AcDbBlockEnd
  0
BLOCK
  5
56
100
AcDbEntity
  8
QUARTZ_DESIGN_1
  6
AI9-LType2
 62
     7
100
AcDbBlockBegin
  2
AI9-BLK8
 70
     0
 10
0.0
 20
0.0
 30
0.0
  3
AI9-BLK8
  1

  0
LINE
  5
59
100
AcDbEntity
  8
QUARTZ_DESIGN_1
  6
AI9-LType2
 62
     7
100
AcDbLine
 10
0.012316
 20
14.945858
 30
0.0
 11
0.012316
 21
-15.15532
 31
0.0
  0
LINE
  5
58
100
AcDbEntity
  8
QUARTZ_DESIGN_1
  6
AI9-LType2
 62
     7
100
AcDbLine
 10
15.106485
 20
0.08096
 30
0.0
 11
-15.114065
 21
0.08096
 31
0.0
  0
CIRCLE
  5
57
100
AcDbEntity
  8
QUARTZ_DESIGN_1
  6
AI9-LType2
 62
     7
100
AcDbCircle
 10
0.0
 20
0.000345
 30
0.0
 40
15.016224
  0
ENDBLK
  5
5A
100
AcDbEntity
  8
QUARTZ_DESIGN_1
100
AcDbBlockEnd
  0
BLOCK
  5
5D
100
AcDbEntity
  8
QUARTZ_DESIGN_1
  6
AI9-LType2
 62
     7
100
AcDbBlockBegin
  2
AI9-BLK9
 70
     0
 10
0.0
 20
0.0
 30
0.0
  3
AI9-BLK9
  1

  0
LINE
  5
60
100
AcDbEntity
  8
QUARTZ_DESIGN_1
  6
AI9-LType2
 62
     7
100
AcDbLine
 10
0.012316
 20
14.945858
 30
0.0
 11
0.012316
 21
-15.15532
 31
0.0
  0
LINE
  5
5F
100
AcDbEntity
  8
QUARTZ_DESIGN_1
  6
AI9-LType2
 62
     7
100
AcDbLine
 10
15.106485
 20
0.08096
 30
0.0
 11
-15.114065
 21
0.08096
 31
0.0
  0
CIRCLE
  5
5E
100
AcDbEntity
  8
QUARTZ_DESIGN_1
  6
AI9-LType2
 62
     7
100
AcDbCircle
 10
0.0
 20
0.000345
 30
0.0
 40
15.016224
  0
ENDBLK
  5
61
100
AcDbEntity
  8
QUARTZ_DESIGN_1
100
AcDbBlockEnd
  0
BLOCK
  5
6D
100
AcDbEntity
  8
QUARTZ_DESIGN_1
  6
AI9-LType2
 62
     7
100
AcDbBlockBegin
  2
AI9-BLK10
 70
     0
 10
0.0
 20
0.0
 30
0.0
  3
AI9-BLK10
  1

  0
POLYLINE
  5
6E
100
AcDbEntity
  8
QUARTZ_DESIGN_1
 62
     7
100
AcDb2dPolyline
 66
     1
 10
0.0
 20
0.0
 30
0.0
 70
     1
  0
VERTEX
  5
6F
100
AcDbEntity
  8
QUARTZ_DESIGN_1
 62
     7
100
AcDbVertex
100
AcDb2dVertex
 10
-307.134052
 20
46.022772
 30
0.0
  0
VERTEX
  5
70
100
AcDbEntity
  8
QUARTZ_DESIGN_1
 62
     7
100
AcDbVertex
100
AcDb2dVertex
 10
305.846792
 20
-53.918587
 30
0.0
  0
VERTEX
  5
71
100
AcDbEntity
  8
QUARTZ_DESIGN_1
 62
     7
100
AcDbVertex
100
AcDb2dVertex
 10
307.13388
 20
-46.022772
 30
0.0
  0
VERTEX
  5
72
100
AcDbEntity
  8
QUARTZ_DESIGN_1
 62
     7
100
AcDbVertex
100
AcDb2dVertex
 10
-305.84662
 20
53.918587
 30
0.0
  0
SEQEND
  5
73
100
AcDbEntity
  8
QUARTZ_DESIGN_1
 62
     7
  0
ENDBLK
  5
74
100
AcDbEntity
  8
QUARTZ_DESIGN_1
100
AcDbBlockEnd
  0
BLOCK
  5
77
100
AcDbEntity
  8
QUARTZ_DESIGN_1
 62
     7
100
AcDbBlockBegin
  2
AI9-BLK11
 70
     0
 10
0.0
 20
0.0
 30
0.0
  3
AI9-BLK11
  1

  0
POLYLINE
  5
78
100
AcDbEntity
  8
QUARTZ_DESIGN_1
 62
     7
100
AcDb2dPolyline
 66
     1
 10
0.0
 20
0.0
 30
0.0
 70
     1
  0
VERTEX
  5
79
100
AcDbEntity
  8
QUARTZ_DESIGN_1
 62
     7
100
AcDbVertex
100
AcDb2dVertex
 10
-241.820037
 20
-26.036309
 30
0.0
  0
VERTEX
  5
7A
100
AcDbEntity
  8
QUARTZ_DESIGN_1
 62
     7
100
AcDbVertex
100
AcDb2dVertex
 10
-240.833017
 20
-33.975187
 30
0.0
  0
VERTEX
  5
7B
100
AcDbEntity
  8
QUARTZ_DESIGN_1
 62
     7
100
AcDbVertex
100
AcDb2dVertex
 10
241.820209
 20
26.036309
 30
0.0
  0
VERTEX
  5
7C
100
AcDbEntity
  8
QUARTZ_DESIGN_1
 62
     7
100
AcDbVertex
100
AcDb2dVertex
 10
240.832845
 20
33.975187
 30
0.0
  0
SEQEND
  5
7D
100
AcDbEntity
  8
QUARTZ_DESIGN_1
 62
     7
  0
ENDBLK
  5
7E
100
AcDbEntity
  8
QUARTZ_DESIGN_1
100
AcDbBlockEnd
  0
BLOCK
  5
81
100
AcDbEntity
  8
QUARTZ_DESIGN_1
 62
     7
100
AcDbBlockBegin
  2
AI9-BLK12
 70
     0
 10
0.0
 20
0.0
 30
0.0
  3
AI9-BLK12
  1

  0
POLYLINE
  5
82
100
AcDbEntity
  8
QUARTZ_DESIGN_1
 62
     7
100
AcDb2dPolyline
 66
     1
 10
0.0
 20
0.0
 30
0.0
 70
     1
  0
VERTEX
  5
83
100
AcDbEntity
  8
QUARTZ_DESIGN_1
 62
     7
100
AcDbVertex
100
AcDb2dVertex
 10
-303.057729
 20
27.138567
 30
0.0
  0
VERTEX
  5
84
100
AcDbEntity
  8
QUARTZ_DESIGN_1
 62
     7
100
AcDbVertex
100
AcDb2dVertex
 10
302.239002
 20
-35.096738
 30
0.0
  0
VERTEX
  5
85
100
AcDbEntity
  8
QUARTZ_DESIGN_1
 62
     7
100
AcDbVertex
100
AcDb2dVertex
 10
303.057557
 20
-27.138567
 30
0.0
  0
VERTEX
  5
86
100
AcDbEntity
  8
QUARTZ_DESIGN_1
 62
     7
100
AcDbVertex
100
AcDb2dVertex
 10
-302.239519
 20
35.096738
 30
0.0
  0
SEQEND
  5
87
100
AcDbEntity
  8
QUARTZ_DESIGN_1
 62
     7
  0
ENDBLK
  5
88
100
AcDbEntity
  8
QUARTZ_DESIGN_1
100
AcDbBlockEnd
  0
BLOCK
  5
8B
100
AcDbEntity
  8
QUARTZ_DESIGN_1
 62
     7
100
AcDbBlockBegin
  2
AI9-BLK13
 70
     0
 10
0.0
 20
0.0
 30
0.0
  3
AI9-BLK13
  1

  0
POLYLINE
  5
8C
100
AcDbEntity
  8
QUARTZ_DESIGN_1
 62
     7
100
AcDb2dPolyline
 66
     1
 10
0.0
 20
0.0
 30
0.0
 70
     1
  0
VERTEX
  5
8D
100
AcDbEntity
  8
QUARTZ_DESIGN_1
 62
     7
100
AcDbVertex
100
AcDb2dVertex
 10
-101.892058
 20
-203.340474
 30
0.0
  0
VERTEX
  5
8E
100
AcDbEntity
  8
QUARTZ_DESIGN_1
 62
     7
100
AcDbVertex
100
AcDb2dVertex
 10
-94.677684
 20
-206.797972
 30
0.0
  0
VERTEX
  5
8F
100
AcDbEntity
  8
QUARTZ_DESIGN_1
 62
     7
100
AcDbVertex
100
AcDb2dVertex
 10
101.892058
 20
203.340474
 30
0.0
  0
VERTEX
  5
90
100
AcDbEntity
  8
QUARTZ_DESIGN_1
 62
     7
100
AcDbVertex
100
AcDb2dVertex
 10
94.677684
 20
206.797972
 30
0.0
  0
SEQEND
  5
91
100
AcDbEntity
  8
QUARTZ_DESIGN_1
 62
     7
  0
ENDBLK
  5
92
100
AcDbEntity
  8
QUARTZ_DESIGN_1
100
AcDbBlockEnd
  0
BLOCK
  5
95
100
AcDbEntity
  8
QUARTZ_DESIGN_1
 62
     7
100
AcDbBlockBegin
  2
AI9-BLK14
 70
     0
 10
0.0
 20
0.0
 30
0.0
  3
AI9-BLK14
  1

  0
POLYLINE
  5
96
100
AcDbEntity
  8
QUARTZ_DESIGN_1
 62
     7
100
AcDb2dPolyline
 66
     1
 10
0.0
 20
0.0
 30
0.0
 70
     1
  0
VERTEX
  5
97
100
AcDbEntity
  8
QUARTZ_DESIGN_1
 62
     7
100
AcDbVertex
100
AcDb2dVertex
 10
-139.992402
 20
-150.43285
 30
0.0
  0
VERTEX
  5
98
100
AcDbEntity
  8
QUARTZ_DESIGN_1
 62
     7
100
AcDbVertex
100
AcDb2dVertex
 10
-134.031009
 20
-155.767925
 30
0.0
  0
VERTEX
  5
99
100
AcDbEntity
  8
QUARTZ_DESIGN_1
 62
     7
100
AcDbVertex
100
AcDb2dVertex
 10
139.992402
 20
150.43285
 30
0.0
  0
VERTEX
  5
9A
100
AcDbEntity
  8
QUARTZ_DESIGN_1
 62
     7
100
AcDbVertex
100
AcDb2dVertex
 10
134.031009
 20
155.767925
 30
0.0
  0
SEQEND
  5
9B
100
AcDbEntity
  8
QUARTZ_DESIGN_1
 62
     7
  0
ENDBLK
  5
9C
100
AcDbEntity
  8
QUARTZ_DESIGN_1
100
AcDbBlockEnd
  0
BLOCK
  5
9F
100
AcDbEntity
  8
QUARTZ_DESIGN_1
 62
     7
100
AcDbBlockBegin
  2
AI9-BLK15
 70
     0
 10
0.0
 20
0.0
 30
0.0
  3
AI9-BLK15
  1

  0
POLYLINE
  5
A0
100
AcDbEntity
  8
QUARTZ_DESIGN_1
 62
     7
100
AcDb2dPolyline
 66
     1
 10
0.0
 20
0.0
 30
0.0
 70
     1
  0
VERTEX
  5
A1
100
AcDbEntity
  8
QUARTZ_DESIGN_1
 62
     7
100
AcDbVertex
100
AcDb2dVertex
 10
-160.573661
 20
201.159556
 30
0.0
  0
VERTEX
  5
A2
100
AcDbEntity
  8
QUARTZ_DESIGN_1
 62
     7
100
AcDbVertex
100
AcDb2dVertex
 10
154.244676
 20
-206.052625
 30
0.0
  0
VERTEX
  5
A3
100
AcDbEntity
  8
QUARTZ_DESIGN_1
 62
     7
100
AcDbVertex
100
AcDb2dVertex
 10
160.573661
 20
-201.159212
 30
0.0
  0
VERTEX
  5
A4
100
AcDbEntity
  8
QUARTZ_DESIGN_1
 62
     7
100
AcDbVertex
100
AcDb2dVertex
 10
-154.244676
 20
206.052625
 30
0.0
  0
SEQEND
  5
A5
100
AcDbEntity
  8
QUARTZ_DESIGN_1
 62
     7
  0
ENDBLK
  5
A6
100
AcDbEntity
  8
QUARTZ_DESIGN_1
100
AcDbBlockEnd
  0
BLOCK
  5
A9
100
AcDbEntity
  8
QUARTZ_DESIGN_1
 62
     7
100
AcDbBlockBegin
  2
AI9-BLK16
 70
     0
 10
0.0
 20
0.0
 30
0.0
  3
AI9-BLK16
  1

  0
POLYLINE
  5
AA
100
AcDbEntity
  8
QUARTZ_DESIGN_1
 62
     7
100
AcDb2dPolyline
 66
     1
 10
0.0
 20
0.0
 30
0.0
 70
     1
  0
VERTEX
  5
AB
100
AcDbEntity
  8
QUARTZ_DESIGN_1
 62
     7
100
AcDbVertex
100
AcDb2dVertex
 10
-37.355687
 20
-73.314388
 30
0.0
  0
VERTEX
  5
AC
100
AcDbEntity
  8
QUARTZ_DESIGN_1
 62
     7
100
AcDbVertex
100
AcDb2dVertex
 10
-30.059664
 20
-76.595497
 30
0.0
  0
VERTEX
  5
AD
100
AcDbEntity
  8
QUARTZ_DESIGN_1
 62
     7
100
AcDbVertex
100
AcDb2dVertex
 10
37.355687
 20
73.314388
 30
0.0
  0
VERTEX
  5
AE
100
AcDbEntity
  8
QUARTZ_DESIGN_1
 62
     7
100
AcDbVertex
100
AcDb2dVertex
 10
30.059664
 20
76.595497
 30
0.0
  0
SEQEND
  5
AF
100
AcDbEntity
  8
QUARTZ_DESIGN_1
 62
     7
  0
ENDBLK
  5
B0
100
AcDbEntity
  8
QUARTZ_DESIGN_1
100
AcDbBlockEnd
  0
BLOCK
  5
B3
100
AcDbEntity
  8
QUARTZ_DESIGN_1
 62
     7
100
AcDbBlockBegin
  2
AI9-BLK17
 70
     0
 10
0.0
 20
0.0
 30
0.0
  3
AI9-BLK17
  1

  0
POLYLINE
  5
B4
100
AcDbEntity
  8
QUARTZ_DESIGN_1
 62
     7
100
AcDb2dPolyline
 66
     1
 10
0.0
 20
0.0
 30
0.0
 70
     1
  0
VERTEX
  5
B5
100
AcDbEntity
  8
QUARTZ_DESIGN_1
 62
     7
100
AcDbVertex
100
AcDb2dVertex
 10
-36.68131
 20
73.391644
 30
0.0
  0
VERTEX
  5
B6
100
AcDbEntity
  8
QUARTZ_DESIGN_1
 62
     7
100
AcDbVertex
100
AcDb2dVertex
 10
29.359448
 20
-76.61522
 30
0.0
  0
VERTEX
  5
B7
100
AcDbEntity
  8
QUARTZ_DESIGN_1
 62
     7
100
AcDbVertex
100
AcDb2dVertex
 10
36.68131
 20
-73.391644
 30
0.0
  0
VERTEX
  5
B8
100
AcDbEntity
  8
QUARTZ_DESIGN_1
 62
     7
100
AcDbVertex
100
AcDb2dVertex
 10
-29.359448
 20
76.61522
 30
0.0
  0
SEQEND
  5
B9
100
AcDbEntity
  8
QUARTZ_DESIGN_1
 62
     7
  0
ENDBLK
  5
BA
100
AcDbEntity
  8
QUARTZ_DESIGN_1
100
AcDbBlockEnd
  0
ENDSEC
  0
SECTION
  2
ENTITIES
  0
LINE
  5
C3
100
AcDbEntity
  8
QUARTZ_DESIGN_1
  6
AI9-LType3
 62
     7
100
AcDbLine
 10
4.044025
 20
0.060461
 30
0.0
 11
70.084783
 21
-149.946403
 31
0.0
  0
LINE
  5
C2
100
AcDbEntity
  8
QUARTZ_DESIGN_1
  6
AI9-LType3
 62
     7
100
AcDbLine
 10
2.669432
 20
-299.922434
 30
0.0
 11
70.084783
 21
-150.012549
 31
0.0
  0
LINE
  5
C1
100
AcDbEntity
  8
QUARTZ_DESIGN_1
  6
AI9-LType3
 62
     7
100
AcDbLine
 10
384.969439
 20
-557.290704
 30
0.0
 11
70.151101
 21
-150.078695
 31
0.0
  0
LINE
  5
C0
100
AcDbEntity
  8
QUARTZ_DESIGN_1
  6
AI9-LType3
 62
     7
100
AcDbLine
 10
278.017828
 20
-413.995747
 30
0.0
 11
3.994416
 21
-720.196522
 31
0.0
  0
LINE
  5
BF
100
AcDbEntity
  8
QUARTZ_DESIGN_1
  6
AI9-LType3
 62
     7
100
AcDbLine
 10
200.594991
 20
-309.90477
 30
0.0
 11
4.02525
 21
-720.043216
 31
0.0
  0
LINE
  5
BE
100
AcDbEntity
  8
QUARTZ_DESIGN_1
  6
AI9-LType3
 62
     7
100
AcDbLine
 10
883.314731
 20
-476.231052
 30
0.0
 11
278.017828
 21
-413.995747
 31
0.0
  0
LINE
  5
BD
100
AcDbEntity
  8
QUARTZ_DESIGN_1
  6
AI9-LType3
 62
     7
100
AcDbLine
 10
683.217384
 20
-250.016264
 30
0.0
 11
200.56433
 21
-310.02776
 31
0.0
  0
LINE
  5
BC
100
AcDbEntity
  8
QUARTZ_DESIGN_1
  6
AI9-LType3
 62
     7
100
AcDbLine
 10
682.99931
 20
-249.953908
 30
0.0
 11
70.018637
 21
-150.012549
 31
0.0
  0
INSERT
  5
B2
100
AcDbEntity
  8
QUARTZ_DESIGN_1
 62
     7
100
AcDbBlockReference
  2
AI9-BLK17
 10
37.064404
 20
-74.942971
 30
0.0
  0
INSERT
  5
A8
100
AcDbEntity
  8
QUARTZ_DESIGN_1
 62
     7
100
AcDbBlockReference
  2
AI9-BLK16
 10
36.377108
 20
-224.967491
 30
0.0
  0
INSERT
  5
9E
100
AcDbEntity
  8
QUARTZ_DESIGN_1
 62
     7
100
AcDbBlockReference
  2
AI9-BLK15
 10
227.56027
 20
-353.684785
 30
0.0
  0
INSERT
  5
94
100
AcDbEntity
  8
QUARTZ_DESIGN_1
 62
     7
100
AcDbBlockReference
  2
AI9-BLK14
 10
141.006122
 20
-567.096134
 30
0.0
  0
INSERT
  5
8A
100
AcDbEntity
  8
QUARTZ_DESIGN_1
 62
     7
100
AcDbBlockReference
  2
AI9-BLK13
 10
102.31012
 20
-514.973993
 30
0.0
  0
INSERT
  5
80
100
AcDbEntity
  8
QUARTZ_DESIGN_1
 62
     7
100
AcDbBlockReference
  2
AI9-BLK12
 10
580.666452
 20
-445.113399
 30
0.0
  0
INSERT
  5
76
100
AcDbEntity
  8
QUARTZ_DESIGN_1
 62
     7
100
AcDbBlockReference
  2
AI9-BLK11
 10
441.890857
 20
-280.022012
 30
0.0
  0
INSERT
  5
6C
100
AcDbEntity
  8
QUARTZ_DESIGN_1
  6
AI9-LType2
 62
     7
100
AcDbBlockReference
  2
AI9-BLK10
 10
376.508974
 20
-199.983228
 30
0.0
  0
LINE
  5
6A
100
AcDbEntity
  8
QUARTZ_DESIGN_1
  6
AI9-LType2
 62
     7
100
AcDbLine
 10
4.043681
 20
0.048231
 30
0.0
 11
4.043681
 21
-786.4619
 31
0.0
  0
LINE
  5
69
100
AcDbEntity
  8
QUARTZ_DESIGN_1
 62
     7
100
AcDbLine
 10
0.038241
 20
0.188447
 30
0.0
 11
0.038241
 21
-789.007826
 31
0.0
  0
SPLINE
  5
68
100
AcDbEntity
  8
QUARTZ_DESIGN_1
 62
     7
100
AcDbSpline
210
0.0
220
0.0
230
1.0
 70
     8
 71
     3
 72
     8
 73
     4
 74
     0
 42
0.00000001
 43
0.00000001
 40
0.0
 40
0.0
 40
0.0
 40
0.0
 40
1.0
 40
1.0
 40
1.0
 40
1.0
 10
16.047771538628471
 20
-778.76831325954856
 30
0.0
 10
10.705978732638888
 20
-782.3498345269096
 30
0.0
 10
5.3417928059895825
 20
-785.9499593098958
 30
0.0
 10
-0.0430636935763889
 20
-789.56662055121524
 30
0.0
  0
SPLINE
  5
67
100
AcDbEntity
  8
QUARTZ_DESIGN_1
 62
     7
100
AcDbSpline
210
0.0
220
0.0
230
1.0
 70
     8
 71
     3
 72
    11
 73
     7
 74
     0
 42
0.00000001
 43
0.00000001
 40
0.0
 40
0.0
 40
0.0
 40
0.0
 40
1.0
 40
1.0
 40
1.0
 40
2.0
 40
2.0
 40
2.0
 40
2.0
 10
1244.0386216905381
 20
-524.99982367621521
 30
0.0
 10
887.38648952907977
 20
-439.64379340277776
 30
0.0
 10
571.49069824218748
 20
-474.03859320746523
 30
0.0
 10
382.11104329427081
 20
-558.40071343315969
 30
0.0
 10
311.43508165147568
 20
-583.76832953559017
 30
0.0
 10
173.49001329210068
 20
-673.20231933593743
 30
0.0
 10
16.047771538628471
 20
-778.76831325954856
 30
0.0
  0
SPLINE
  5
66
100
AcDbEntity
  8
QUARTZ_DESIGN_1
 62
     7
100
AcDbSpline
210
0.0
220
0.0
230
1.0
 70
     8
 71
     3
 72
    14
 73
    10
 74
     0
 42
0.00000001
 43
0.00000001
 40
0.0
 40
0.0
 40
0.0
 40
0.0
 40
1.0
 40
1.0
 40
1.0
 40
2.0
 40
2.0
 40
2.0
 40
3.0
 40
3.0
 40
3.0
 40
3.0
 10
28.029469129774302
 20
0.0206705729166667
 30
0.0
 10
101.39691162109374
 20
-20.096447753906247
 30
0.0
 10
195.69933810763888
 20
-53.102185058593747
 30
0.0
 10
300.06058213975689
 20
-94.004770236545127
 30
0.0
 10
471.28682318793398
 20
-159.51171061197914
 30
0.0
 10
671.09926079644094
 20
-242.95192328559025
 30
0.0
 10
850.0457885742187
 20
-322.99113769531249
 30
0.0
 10
1002.0551147460936
 20
-390.43818359374995
 30
0.0
 10
1182.0937377929686
 20
-475.90514594184026
 30
0.0
 10
1250.0895874023436
 20
-505.92915310329857
 30
0.0
  0
LINE
  5
65
100
AcDbEntity
  8
QUARTZ_DESIGN_1
 62
     7
100
AcDbLine
 10
0.014469
 20
0.017742
 30
0.0
 11
28.051173
 21
0.017742
 31
0.0
  0
LINE
  5
64
100
AcDbEntity
  8
QUARTZ_DESIGN_1
 62
     7
100
AcDbLine
 10
1250.014484
 20
-505.980141
 30
0.0
 11
1244.062737
 21
-524.958483
 31
0.0
  0
LINE
  5
63
100
AcDbEntity
  8
QUARTZ_DESIGN_1
  6
AI9-LType2
 62
     7
100
AcDbLine
 10
0.019293
 20
-534.98371
 30
0.0
 11
29.598882
 21
-534.98371
 31
0.0
  0
LINE
  5
62
100
AcDbEntity
  8
QUARTZ_DESIGN_1
  6
AI9-LType2
 62
     7
100
AcDbLine
 10
-0.069246
 20
-184.989225
 30
0.0
 11
29.348941
 21
-184.989225
 31
0.0
  0
INSERT
  5
5C
100
AcDbEntity
  8
QUARTZ_DESIGN_1
  6
AI9-LType2
 62
     7
100
AcDbBlockReference
  2
AI9-BLK9
 10
340.053231
 20
-576.738612
 30
0.0
  0
INSERT
  5
55
100
AcDbEntity
  8
QUARTZ_DESIGN_1
  6
AI9-LType2
 62
     7
100
AcDbBlockReference
  2
AI9-BLK8
 10
429.951448
 20
-539.164678
 30
0.0
  0
INSERT
  5
4E
100
AcDbEntity
  8
QUARTZ_DESIGN_1
 62
     7
100
AcDbBlockReference
  2
AI9-BLK7
 10
528.026168
 20
-185.06407
 30
0.0
  0
INSERT
  5
45
100
AcDbEntity
  8
QUARTZ_DESIGN_1
  6
AI9-LType2
 62
     7
100
AcDbBlockReference
  2
AI9-BLK5
 10
528.043221
 20
-184.984747
 30
0.0
  0
INSERT
  5
3E
100
AcDbEntity
  8
QUARTZ_DESIGN_1
  6
AI9-LType2
 62
     7
100
AcDbBlockReference
  2
AI9-BLK4
 10
300.043271
 20
-94.024149
 30
0.0
  0
INSERT
  5
36
100
AcDbEntity
  8
QUARTZ_DESIGN_1
 62
     7
100
AcDbBlockReference
  2
AI9-BLK3
 10
865.032987
 20
-330.094063
 30
0.0
  0
INSERT
  5
2D
100
AcDbEntity
  8
QUARTZ_DESIGN_1
 62
     7
100
AcDbBlockReference
  2
AI9-BLK1
 10
865.045734
 20
-329.981753
 30
0.0
  0
SPLINE
  5
2B
100
AcDbEntity
  8
QUARTZ_DESIGN_1
  6
AI9-LType1
 62
     7
100
AcDbSpline
210
0.0
220
0.0
230
1.0
 70
     8
 71
     3
 72
     8
 73
     4
 74
     0
 42
0.00000001
 43
0.00000001
 40
0.0
 40
0.0
 40
0.0
 40
0.0
 40
1.0
 40
1.0
 40
1.0
 40
1.0
 10
4.0895005967881941
 20
-534.97682020399304
 30
0.0
 10
6.8705539279513879
 20
-678.20597601996519
 30
0.0
 10
5.3784830729166666
 20
-691.63358018663189
 30
0.0
 10
10.032118055555555
 20
-782.8183675130208
 30
0.0
  0
MTEXT
  5
29
100
AcDbEntity
  8
QUARTZ_DESIGN_1
 62
     7
100
AcDbMText
 10
800.551824
 20
-766.098582
 30
0.0
 40
18.898809
 41
0.0
 71
     1
 72
     2
  1
\fComic Sans MS |b1|i0;\H18.8988;\C7;\U+004C\U+0065\U+0020\U+0051\U+0075\U+0061\U+0072\U+0074\U+007A\U+0020\U+0070\U+0061\U+0072\U+0020\U+0043\U+0068\U+0072\U+0069\U+0073\U+0074\U+0069\U+0061\U+006E\U+0020\U+0044\U+0065\U+0072\U+0065\U+0066\U+0061\U+0074
  7
STD
210
0.0
220
0.0
230
1.0
 73
     1
 44
1.0
  0
ENDSEC
  0
SECTION
  2
OBJECTS
  0
DICTIONARY
  5
19
100
AcDbDictionary
280
     0
281
     1
  3
ACAD_GROUP
350
1A
  3
ACAD_MLINESTYLE
350
1B
  3
ACAD_LAYOUT
350
1E
  3
ACAD_PLOTSETTINGS
350
22
  3
ACAD_PLOTSTYLENAME
350
1F
  3
ACAD_WIPEOUT_VARS
350
23
  0
DICTIONARY
  5
1A
102
{ACAD_REACTORS
330
19
102
}
100
AcDbDictionary
280
     0
281
     1
  0
DICTIONARY
  5
1B
102
{ACAD_REACTORS
330
19
102
}
100
AcDbDictionary
280
     0
281
     1
  3
Standard
350
1C
  0
MLINESTYLE
  5
1C
102
{ACAD_REACTORS
330
1B
102
}
100
AcDbMlineStyle
  2
Standard
 70
     0
  3

 62
     0
 51
90.0
 52
90.0
 71
     2
 49
0.5
 62
   256
  6
ByLayer
 49
-0.5
 62
   256
  6
ByLayer
  0
ACDBDICTIONARYWDFLT
  5
1F
102
{ACAD_REACTORS
330
19
102
}
100
AcDbDictionary
281
     1
  3
Normal
350
1D
100
AcDbDictionaryWithDefault
340
1D
  0
ACDBPLACEHOLDER
  5
1D
102
{ACAD_REACTORS
330
1F
102
}
  0
LAYOUT
  5
20
102
{ACAD_REACTORS
330
1E
102
}
100
AcDbPlotSettings
  1

  2

  4

  6

 40
0.0
 41
0.0
 42
0.0
 43
0.0
 44
0.0
 45
0.0
 46
0.0
 47
0.0
 48
0.0
 49
0.0
140
0.0
141
0.0
142
1.0
143
1.0
 70
  1024
 72
     0
 73
     0
 74
     0
  7

 75
     0
147
1.0
148
0.0
149
0.0
100
AcDbLayout
  1
Model
 70
     0
 71
     0
 10
0.0
 20
0.0
 11
0.0
 21
0.0
 12
0.0
 22
0.0
 32
0.0
 14
0.0
 24
0.0
 34
0.0
 15
0.0
 25
0.0
 35
0.0
146
0.0
 13
0.0
 23
0.0
 33
0.0
 16
0.0
 26
0.0
 36
0.0
 17
0.0
 27
0.0
 37
0.0
 76
     0
330
A
331
0
345
0
346
0
  0
LAYOUT
  5
21
102
{ACAD_REACTORS
330
1E
102
}
100
AcDbPlotSettings
  1

  2

  4

  6

 40
0.0
 41
0.0
 42
0.0
 43
0.0
 44
0.0
 45
0.0
 46
0.0
 47
0.0
 48
0.0
 49
0.0
140
0.0
141
0.0
142
1.0
143
1.0
 70
     0
 72
     0
 73
     0
 74
     0
  7

 75
     0
147
1.0
148
0.0
149
0.0
100
AcDbLayout
  1
Layout1
 70
     0
 71
     0
 10
0.0
 20
0.0
 11
0.0
 21
0.0
 12
0.0
 22
0.0
 32
0.0
 14
0.0
 24
0.0
 34
0.0
 15
0.0
 25
0.0
 35
0.0
146
0.0
 13
0.0
 23
0.0
 33
0.0
 16
0.0
 26
0.0
 36
0.0
 17
0.0
 27
0.0
 37
0.0
 76
     0
330
B
331
0
345
0
346
0
  0
DICTIONARY
  5
1E
102
{ACAD_REACTORS
330
19
102
}
100
AcDbDictionary
280
     0
281
     1
  3
Layout1
350
21
  3
Model
350
20
  0
DICTIONARY
  5
22
102
{ACAD_REACTORS
330
19
102
}
100
AcDbDictionary
280
     0
281
     1
  0
WIPEOUTVARIABLES
  5
23
100
AcDbWipeoutVariables
 70
     1
  0
ENDSEC
  0
EOF
